Beck - High Five Chords & Tabs

 

High Five Chords & Tabs

Beck Chords & Tabs

Version: 1 Type: Bass Tab 0 ratings
1 star 2 stars 3 stars 4 stars 5 stars
comments

High Five Bass Tab

   
High Five
Beck
Tabbed By Nick Key 
(and Beck Tab page for Main Riff)
Drop D

1--------4----------2h4-----
2------4---4-0----4-----0---
3---2-----------2---------2-
4---------------------------
[ Tab from: http://www.guitartabs.cc/tabs/b/beck/high_five_btab.html ]
Chorus
Bass:
G---------------------------
D---------------------------
A---------------------------
D--5///---------------------

Slide that really slow and let it go

As is very often the case, the low
synth bass after the bird calls is just
an F.             ^This comes in once
1---------------|------
2-3-33-33-33----|-1-33-
3---------------|------
4---------------|------


Comments