Beck - E-pro Chords & Tabs

 

E-pro Chords & Tabs

Beck Chords & Tabs

Version: 4 Type: Tab 0 ratings
1 star 2 stars 3 stars 4 stars 5 stars
comments

E-pro Tab

   
Author/Artist: Beck
Title: E-Pro
Album: Guero
Transcribed by: Saverain
Email: onlythebesttabs@yahoo.com

v strum down
^ strum up
b bend not up about 1/4 pitch
/ slide up

Tuning: All strings down 1/4 step
(Sounds good in standard)


------------|--------------------------------------------------------------|--|
------------|--------------------------------------------------------------|--|
------------|--------------------------------------------------------------|--|
------------|--------------------------------------------------------------|--|
------------|---------3-3h5-5-5--5--3--------------------------------------|--|
------------|-0---0--------------------3h5-5-5-5-5--3--3-3h5-5-5-5-5--3b4--|--|
  Main Riff   v   v   ^ v   ^ v  ^  v  v   ^ v ^ v  ^  ^ v   ^ v ^ v  ^
[ Tab from: http://www.guitartabs.cc/tabs/b/beck/e_pro_tab_ver_4.html ]
------------|---------------------------------|-------------------------------|
------------|---------------------------------|-------------------------------|
------------|---------------------------------|-------------------------------|
------------|---------------------------------|-------------------------------|
------------|---------------------------------|-------------------------------|
------------|---------------------------------|-------------------------------|
   Verse Chords E  E  D  D  C    E  E  A  A  G

------------|------------------------------------------------------------|----|
------------|------------------------------------------------------------|----|
------------|------------------------------------------------------------|----|
------------|------------------------------------------------------------|----|
------------|---------3-3h5-5-5-----3------------------------------------|----|
------------|-0------------------------3h5-5-5-5-5-3-3-3h5-5-5-5-5--3b4--|----|
  Played once during last chorus
Comments