Beck - E-pro Chords & Tabs

 

E-pro Chords & Tabs

Beck Chords & Tabs

Version: 3 Type: Tab 0 ratings
1 star 2 stars 3 stars 4 stars 5 stars
comments

E-pro Tab

   
- = eigth note (1/2 beet)          x=muted note
-- = quarter note (1 beet)         0=open note
---- = half note (2 beet)


Main riff:
[ Tab from: http://www.guitartabs.cc/tabs/b/beck/e_pro_tab_ver_3.html ]
|---0----0----0--5--5--5--3--5----5----3-3-3-5-5--5--3--|
|---0----0----0--7--7--7--5--5----5----3-3-3-5-5--5--3--|
|---1----1----1--7--7--7--5--6----6----4-4-4-6-6--6--4--|
|---2----2----2--7--7--7--5--7----7----5-5-5-7-7--7--5--|
|---2----2----2--5--5--5--3--7----7----5-5-5-7-7--7--5--|
|---0----0----0--x--x--x--x--5----5----3-3-3-5-5--5--3--|
    E    E    E  D  D  D  C  A    A    G G G A A  A  G

Solo:

|-------------------------------------------------------|
|-------------------------------------------------------|
|-------------------------------------------------------| repeat 4x
|-------------------------------------------------------|
|----------------5--5--5--3-----------------------------|
|---0----0----0--------------5----5----3-3-3-5-5--5--3--|
Comments