Beck - Debra Chords & Tabs

 

Debra Chords & Tabs

Beck Chords & Tabs

Version: 1 Type: Bass Tab 0 ratings
1 star 2 stars 3 stars 4 stars 5 stars
comments

Debra Bass Tab

Debra - Beck

I put all frets above the 9th in parentheses to avoid confusion.

  verse/chorus riff
G|--------------------------------|
D|--------------------------------|
A|-----3h4p3h4p3-\----------------|
E|3--33-----------1--114h5p4h5p4-\|

  chorus end
G|-----------------------------------|
D|--------------------------3--------|
A|-----3h4/(10)-(10)\-----1-----3333\|
E|3--33--------------11--------------|
[ Tab from: http://www.guitartabs.cc/tabs/b/beck/debra_btab.html ]
  during soft speaking part
   riff
G|--------|
D|5---1---|
A|--------|
E|--------|

"girl when our
 eyes did meet     you know I was packing heat"
G|----------|       |---------------|
D|-----5\---|       |----------3-3--|
A|----5-----|       |---------------|
E|3--3------|       |1--114h5p4-----|

  towards the end of the song, the bassist plays this once
G|----------------|
D|------------3---|
A|123454321-------|
E|---------332----|

tabbed by Achilles (blue_sincere@hotmail.com)

Comments