Beck - Black Tambourine Chords & Tabs

 

Black Tambourine Chords & Tabs

Beck Chords & Tabs

Version: 1 Type: Bass Tab 0 ratings
1 star 2 stars 3 stars 4 stars 5 stars
comments

Black Tambourine Bass Tab

beck
black tambourine

standard tuning

G----------------------------------|
D----------------------------------|
A------55--35--35---55--35----0345-|
E----------------------------------|


G-----------------------------------|
D-----------------------------------|
A------55--35--35--/-55--35----0345-|
E-----------------------------------|
[ Tab from: http://www.guitartabs.cc/tabs/b/beck/black_tambourine_btab.html ]
G-----------------------------------|
D-----------------------------------|
A------55--35--35--/-55--35----0345-|
E-----------------------------------|

there's a part like this:

G----------------------------------|
D-----------------------------53---|
A------55--35--35--/-55--35------5-|
E----------------------------------|

this song is very easy to play
enjoy yourself!!
Riccardo
Comments