Bebo Norman - Cover Me Chords & Tabs

 

Cover Me Chords & Tabs

Bebo Norman Chords & Tabs

Version: 1 Type: Chords 0 ratings
1 star 2 stars 3 stars 4 stars 5 stars
comments

Cover Me Chords

   
Tuning: Standard (E A D G B E)

Verse:
E      A
F#m    B
E      A
F#m    B

Bridge:
F#m    B
E      A
F#m    B


Chorus:
A      B
E      A
A      B
E      A
F#m    B
E

=======================================================================================

Another way of playing it...

Tuning: Standard (E A D G B E)
[ Tab from: http://www.guitartabs.cc/tabs/b/bebo_norman/cover_me_crd.html ]
Intro:            Verse:                 Bridge:
E|---------------------------------------------------------------------||
B|---------------------------------------------------------------------||
G|--9--9-----------9--13---9----8-----------3----8--9--13--------------||
D|--9--7--(2x)-----9--11---7----9--(2x)-----4----9--9--11---"---"------||
A|--7--9-----------7--0----9----9-----------4----9--7--0---------------||
E|------------------------------7-----------2----7---------------------||
                   E  A   F#m   B          F#m   B  E  A   F#m  B
Chorus:
E|------0--0---0------------------------||
B|------0--0---12-----------------------||
G|--13--8--9---9----------9---8--9------||
D|--11--9--9---11--(2x)---7---9--9------||
A|--0---9--7---0----------9---9--7------||
E|--x---7--0---x--------------7---------||
    A   B  E  "A"        F#m  B  E

You CAN exchange these chords -- x979xx AND 2443xx -- with x442xx or 044200. They're both interchangeable.
Someone else tabbed the first one but I didn't like it so I changed it. The first ones good but I like my way better. Peace!
 
Comments