Beavis - Exodus Song Chords & Tabs

 

Exodus Song Chords & Tabs

Beavis Chords & Tabs

Version: 1 Type: Tab 0 ratings
1 star 2 stars 3 stars 4 stars 5 stars
comments

Exodus Song Tab

I looked everywhere for this so i thought that i would make it known to everyone. Thank you.

b-------------------------------------------------6-----5--6--8--5-------------------|
g-----------7--5----------5-----------------7-----------------------5---7------------|
d------5------------5--8----7------5-------------------------------------------------|
a---5-----------------------------8--------------------------------------------------|
E------------------------------------------------------------------------------------|
[ Tab from: http://www.guitartabs.cc/tabs/b/beavis/exodus_song_tab.html ]
e-----------5-----------------------5-------------------------------------------------------|
b-------6-------8----------8---8----------------------------6-------------------------------|
g---7--------------7--7------7--------7--7--------5--7--8------7---5----5-------------------|
d--------------------------------------------------------------------------8-----7-----5----|
a------------------------------------------------------------------------------------8------|
E-------------------------------------------------------------------------------------------|
Comments