Beautiful Creatures - Step Back Chords & Tabs

 

Step Back Chords & Tabs

Beautiful Creatures Chords & Tabs

Version: 1 Type: Bass Tab 0 ratings
1 star 2 stars 3 stars 4 stars 5 stars
comments

Step Back Bass Tab

   
Band: Beautiful Creatures
Song: Step Back
Taken From: Beautiful Creatures
Tabbed by: Uzi69

Drop D tuning D A D G

Intro: - come in after 3rd guitar intro
G|---------------------------------|
D|---------------------------------|
A|---------------------------------|
D|-6-5-3--0--3-5-------------------|

Come in again after 3rd guitar intro
G|------------------------------|
D|------------------------------|
A|------------------------------|
D|-5--3--0~---------------------|

Main Riff:
G|-----------------------------------------------------|
D|-----------------------------------------------------|
A|-5/----------------5/---------------5/---------------|
D|----0--6-5-0-0-3-5---0--6-5-0-0-3-5---0--6-5-0-0-3-5-|

G|--------------------------|
D|--------------------------|
A|-5---5---5---5---8~-------|			
D|--------------------------|
[ Tab from: http://www.guitartabs.cc/tabs/b/beautiful_creatures/step_back_btab.html ]
Verse:
G|-------------------------------|
D|-------------------------------|
A|-------------------------------|
D|-3-3---3-3---3-3--3------------|

Pre-Chorus 1:      Only play this 1st time 
G|----------------|--------------------------|
D|----------------|--------------------------|
A|----------------|---5-5-3--------5-5-3-----|
D|-0-3-----5-6----|-0-------5-4--0-------5-3-|

Pre-Chorus 2:
G|--------------------------------------------------------|
D|--------------------------------------------------------|
A|--------------------------------------------------------|
D|-8-8-8-8-8-8-8-8-8-8-8-8-8-8-8-8-8-8-8-8-8-8-8-8-8-8--8-|

Bridge:
G|-------------------------------------------------------|
D|-------------------------------------------------------|
A|--5/--5/-------5/--5/-------5/--5/---------------------|
D|---------0-6-5--------0-6-5--------0-6-5-6-5-3--0--3-5-| 


Intro - x1
Main Riff - x1
Verse - x2 pause inbetween for guitar solo
Pre Chorus 1 - x2
Pre Chorus 2 - x1
Main Riff - x2
Verse - x2 pause inbetween for guitar solo
Pre Chorus 1 - x2
Pre Chorus 2 - x1
Main Riff - x2 A5/ at end of 2nd riff 
Bridge - x2
Main Riff - x4
End on D-6-5-|
Comments