Beautiful Creatures - Ride Chords & Tabs

 

Ride Chords & Tabs

Beautiful Creatures Chords & Tabs

Version: 1 Type: Bass Tab 0 ratings
1 star 2 stars 3 stars 4 stars 5 stars
comments

Ride Bass Tab

   
Band: Beautiful Creatures
Song: Ride 
Taken From: Beautiful Creatures
Tabbed By: Uzi69

Drop D Tuning - D A D G

Main Riff
G|---------------------------------------------|
D|---------------------------------------------|
A|---------------5-----------------------------|
D|-0-3-5-3-0-0-3---0-3-5-3-0-0-3-5-3-3-5-5-3-0-|

Verse
G|----------------------------|
D|----------------------------|
A|----------------------------|
D|-5-5-3-0--------------------|

Chorus:
G|-------------------------------------------------|
D|-------------------------------------------------|
A|-------------------------------------------------|
D|-0-0-0-0-0-0-3-3-3-3-3-3-5-5-5-5-5-5-0-0-0-0-0-0-|

G|-------------------------------------------------|
D|-------------------------------------------------|
A|-------------------------------------------------|
D|-0-0-0-0-0-0-3-3-3-3-3-3-5-5-5-5-5-5-0-0-5-5-3-0-|
[ Tab from: http://www.guitartabs.cc/tabs/b/beautiful_creatures/ride_btab.html ]
Chorus 2:
G|-------------------------------------------------|
D|-------------------------------------------------|
A|-------------------------------------------------|
D|-0-0-0-0-0-0-3-3-3-3-3-3-5-5-5-5-5-5-0-0-0-0-0-0-|

G|--------------------------|
D|--------------------------|
A|--------------------------|
D|-0-0-0-0-0-0-3-3-3-3-3-3--|

G|---------------------------------------------|
D|---------------------------------------------|
A|---------------------------------------------|
D|-5-0-5-0-5-0-5-0-5-5-7-0-7-0-7-0-7-0-5-5-3-0-|

Chorus 3:
G|-------------------------------------------------|
D|-------------------------------------------------|
A|-------------------------------------------------|
D|-0-0-0-0-0-0-3-3-3-3-3-3-5-5-5-5-5-5-0-0-5-5-3-0-|

G|-------------------------------------------------|
D|-------------------------------------------------|
A|-------------------------------------------------|
D|-0-0-0-0-0-0-3-3-3-3-3-3-5-5-5-5-5-5-0-0-5-5-3-0-|

Main Riff - x1 come in after guitar intro
Verse - x4
Chorus - x1
Verse - x1
Main Riff - x1
Verse - x4
Chorus - x1
Chorus 2 - x1 
Verse - x4
Chorus - x1
Chorus 2 - x1
Chorus - x1
Chorus 3 - x1
Comments