Beau Brummels - Theyll Make You Cry Chords & Tabs

 

Theyll Make You Cry Chords & Tabs

Beau Brummels Chords & Tabs

Version: 1 Type: Tab 0 ratings
1 star 2 stars 3 stars 4 stars 5 stars
comments

Theyll Make You Cry Tab

   
#----------------------------------PLEASE NOTE---------------------------------#
#This file is the author's own work and represents their interpretation of the #
#song. You may only use this file for private study, scholarship, or research. #
#------------------------------------------------------------------------------##
From: rilynch@interaccess.com (Rick Lynch)
Date: 16 Aug 1995 22:30:05 GMT
Subject: chordpro,They'll make you cry , beau brummels  -  cry.pro [1/1]

{title: They'll Make You Cry}
{st:The Beau Brummels}

{c:Opening Bridge}
{sot}
e:--------10------------------|
B:----11----------------------|
G:12--------------------------|
D:---------------2--[h]3--[p]2|
A:------------0---------------|
E:----------------------------|
{eot}

[Am]Oh[F]Oh[D]Oh[G]Oh[Am]

{c:Main Bridge}
{sot}
e:0--0--0--0----0--0------------|
B:0--0--0--0----1--1------------|
G:4--3--2--0----2--2------------|
D:5--4--3--0----2--2--2--0------|
A:x--x--x--x----0--0--------3--2|
E:x--x--x--x----x--x------------|
                          I Can't
{eot}

[Am]say, Yes I[F] know,
You know[D] I hate to[G] go.
But good[Am]bye, love was[F] sweet,
I was[D] kind never[G] meet.

{c:Chorus}
{soc}
I'll[C] Cry just a[G] little, cause I[F] love you[G] so
I'll[C] die just a[G] little, cause I[F] have to go[E] away.
{eoc}
[ Tab from: http://www.guitartabs.cc/tabs/b/beau_brummels/theyll_make_you_cry_tab.html ]
{c:Main Bridge}
{sot}
e:0--0--0--0----0--0------------|
B:0--0--0--0----1--1------------|
G:4--3--2--0----2--2------------|
D:5--4--3--0----2--2--2--0------|
A:x--x--x--x----0--0--------3--2|
E:x--x--x--x----x--x------------|
                        Can't you
{eot}
[Am]see, how I[F] feel,
When I[D] say loves un[G]real.
So Good[Am]bye, Love was[F] sweet,
Even[D] though incom[G]plete.
{npp}
{c:Chorus}

{c:Middle Bridge}
{sot}
e:---------0--0--1-----------2--2--3-----------0--0--1-----------2--2--------|
B:---------1--1--1-----------3--3--0-----------1--1--1-----------3--3--------|
G:---------2--2--2-----------2--2--0-----------2--2--2-----------2--2--------|
D:---0--2--2--2--3-----------0--0--0-----0--2--2--2--3-----------0--0--2--0--|
A:3--------0--0--3--3/5--5~--x--x--2--3--------0--0--3--3/5--5~--x--2--------|
E:---------x--x--x-----------x--x--3-----------x--x--x-----------x--3--------|

e:-------|
B:-------|
G:-------|
D:-------|
A:3--2--0|
E:-------|

e:0--0--0--0----0--0------------|
B:0--0--0--0----1--1------------|
G:4--3--2--0----2--2------------|
D:5--4--3--0----2--2--2--0------|
A:x--x--x--x----0--0--------3--2|
E:x--x--x--x----x--x------------|
                            Every
{eot}

[Am]night
I still[F] hear
Oh your[D] sighs very[G] clear
Now loves[Am] gone
Gone[F] away
As I[D] once heard you[G] say

{c:Chorus}

{c:repeat Middle Bridge, followed by Main bridge, End}

#Have fun with this great oldie, Transcribed by Rick
#rilynch@interaccess.com
Comments