Beatsteaks - Soothe Me Chords & Tabs

 

Soothe Me Chords & Tabs

Beatsteaks Chords & Tabs

Version: 2 Type: Tab 0 ratings
1 star 2 stars 3 stars 4 stars 5 stars
comments

Soothe Me Tab

			   Soothe Me - Beatsteaks
-----------------------------------------------------------------------------
Tabbed by: Isaac Yankeem Steffenboytoyboy
Tuning: standart

some weeks ago I tabbed my version of the song in standart tuning. here's my solo
interpretation that I left out. I couldn't notice if it's another guitar, or the bass
at any rate there's another guitar, that plays the following a bit higher. this guitar
isn't that loud, so you can do it like I do, it sounds like this...
[ Tab from: http://www.guitartabs.cc/tabs/b/beatsteaks/soothe_me_tab_ver_2.html ]
e|------------|
B|------------|
G|------------|  4x (you can search for other positions for the riff, because
D|-4----------|      of the diffrent instruments in the song)
A|----7--6----|
E|---------7~-|


e|-----------------|
B|-----------------|
G|-----------------| 2x
D|-6--4------------|
A|-------7--6------|
E|-------------7---|

e|------------|
B|------------|
G|------------|  2x
D|-4----------|      
A|----7--6----|
E|---------7~-|

e|-----------|
B|-----------|
G|-----------|
D|-----------| ...Verse...
A|-4~--6~----|
E|-----------|

it's not perfect, but you can vary it in your way but it should be the basic. have a nice day xD
Comments