Beatsteaks - I Dont Care As Long As You Sing Chords & Tabs

 

I Dont Care As Long As You Sing Chords & Tabs

Beatsteaks Chords & Tabs

Version: 1 Type: Bass Tab 0 ratings
1 star 2 stars 3 stars 4 stars 5 stars
comments

I Dont Care As Long As You Sing Bass Tab

   
Beatsteaks - "I don't care as long as you sing" (Smacksmash)

Standard 4-string bass tuning E-A-D-G


G|----------------------------------------|
D|----------------------------------------|
A|---------------4-4----------------------|
E|----------04-4-----2-2------------------|
[ Tab from: http://www.guitartabs.cc/tabs/b/beatsteaks/i_dont_care_as_long_as_you_sing_btab.html ]
Play this the whole song. Before the break at the Chorus you play a small variation of this:



G|----------------------------------------|
D|----------------------------------------|
A|---------------4-4----------------------|
E|----------04-4-----2-2-2-2-2-2----------|

After the break for the Chorus go on like you did before.

Thatīs it. Itīs pretty easy to play.
This is my first song I tabbed but I think/hope itīs corect ;-)
Otherwise mail me: 
rene-siemon@gmx.de 
Mfg
René
Comments