Beatsteaks - Hand In Hand Chords & Tabs

 

Hand In Hand Chords & Tabs

Beatsteaks Chords & Tabs

Version: 1 Type: Bass Tab 0 ratings
1 star 2 stars 3 stars 4 stars 5 stars
comments

Hand In Hand Bass Tab

   
Titel: Hand in Hand
Künstler: Beatsteaks
Album: Smack Smash
Instrument: Bass [E-Bass]
Bandmitglied: Torsten Scholz
Tabber: Wayne [wayne@ftbm.de]

                    !!!FOR AN ENGLISH VERSION MAIL ME!!!

Tuning:[Normale Stimmung, nur alles einen Halbtonschritt tiefer gestimmt]
F#
C#
G#
D#


Also das ganze ist fürn Bass nich schwer ;). Ich hab die Lagen aufgeschrieben wie ich 
das Lied spiele! Torsten spielt live [zumindest die Strophe] ein einer anderen Lage...Soll 
aber nicht weiter stören läuft ja aufs selbe hinaus!

[Drum-Solo; 4/4 Takt]
4 Takte Pause
[ Tab from: http://www.guitartabs.cc/tabs/b/beatsteaks/hand_in_hand_btab.html ]
[Strophe; 4/4; 2/4 Takt]
Ihr spielt hier hauptsächlich Halbe-Noten [auch im 2/4 Takt]! Nur die letzten 4 Töne sind Viertel!
                                     2/4
F#|-------------------------------------------------------------------------------|
C#|---5---3---5---3---5---3---5---3---------5---3---5---3---5---3---5---3---------|
G#|-----3-------3-------3---5---3-----3-------3-------3-------3---5---3---5-5-5-5-|
D#|-5-------5-------5---------------------5-------5-------5-----------------------|


[Refrain; 4/4 Takt]

Ihr spielt hier hauptsächlich Viertel-Noten! Es gibt nur eine Note, die eine Halbe ist! 
hab sie mit einem * gekennzeichnet.

F#|----------------------------------------------------------------|
C#|----------------------------------------------------------3-2-0-|
G#|----------------------------------------------------------------|
D#|5-5-5-5-5-0-3*--5-5-5-5-5-0-3*--5-5-5-5-5-5-7-8-0-0-0-0-0-------|

[Strophe, hier sind die Gitarrensoli]

[Refrain]

[Strophe]

[Bridge 4/4 Takt]

Ihr spielt nur Viertel!!!

F#|---------|
C#|---------|
G#|-5-5-5-5-|
D#|---------|

[Refrain] x2

Have Fun!!!
Comments