Beatles - You Really Got A Hold On Me Chords & Tabs

 

You Really Got A Hold On Me Chords & Tabs

Beatles Chords & Tabs

Version: 1 Type: Tab 0 ratings
1 star 2 stars 3 stars 4 stars 5 stars
comments

You Really Got A Hold On Me Tab

   
--------------------------------------------------------------------
  THE BEATLES - YOU REALLY GOT A HOLD ON ME (Robinson) From WITH THE
                BEATLES album. Released on 22nd November 1963.
--------------------------------------------------------------------
  Tabbed by:PJVillanueva


I don't like you
But I love you
Seems that I'm always
Thinkin' of you
Oh, ho, ho, You treat me badly
I love you madly
You've really got a hold on me
(You really got a hold on me)
You really got a hold on me
(You really got a hold on me)

Baby
I don't want you
But I need you
Don't wanna kiss you
But I need to
Oh, ho, ho you do me wrong now
My love is strong now
You've really got a hold on me
(You really got a hold on me)
You really got a hold on me
(You really got a hold on me)

Baby
I love you and all I want you to do
Is just
Hold me
Hold me
Hold me
Hold me

Tied up
Tied up

I wanna leave you
Don't wanna stay here
Don't wanna spend another day here
Oh ho ho, I wanna split now
I just can't quit now
You've really got a hold on me
(You really got a hold on me)
You really got a hold on me
(You really got a hold on me)

Baby
I love you and all I want you to do
Is just
Hold me (please)
Hold me (squeeze)
Hold me

You really got a hold on me
(You really got a hold on me)
You really got a hold on me
(You really got a hold on me)



e|------ ------ ------ ------|------ ----0- 0-2-5- 7-5-2-|
B|---------------------------|---------------------------|
G|---------------------------|---------------------------|
D|---------------------------|---------------------------|
A|---------------------------|---------------------------|
E|---------------------------|-----------0--0-2-5--7-5-2-|


  A                           F#m                      E
e|0---0- 0----- 0----- 0---0-|2---2- 2---2- 2-2-2- 2-2-0-|
B|2---2--2------2------2---2-|2---2--2---2--2-2-2--2-2-0-|
G|2---2--2------2------2---2-|2---2--2---2--2-2-2--2-2-1-|
D|2---2--2------2------2---2-|4---4--4---4--4-4-4--4-4-2-|
A|0---0--0------0------0---0-|4---4--4---4--4-4-4--4-4-2-|
E|---------------------------|2---2--2---2--2-2-2--2-2-0-|
 
e|5----- ------ ------ ------|------ ------ ------ ------|
B|---------------------------|---------------------------|
G|---------------------------|---------------------------|
D|---------------------------|---------------------------|
A|-------4------4---2--0---2-|---------------------------|
E|5--------------------------|2--------------------------|


  A                           F#m                      E
e|0-0-0- 0----- 0---0- 0---0-|2-2-2- 2----- 2-2-2- 2-2-0-|
B|2-2-2--2------2---2--2---2-|2-2-2--2------2-2-2--2-2-0-|
G|2-2-2--2------2---2--2---2-|2-2-2--2------2-2-2--2-2-1-|
D|2-2-2--2------2---2--2---2-|4-4-4--4------4-4-4--4-4-2-|
A|0-0-0--0------0---0--0---0-|4-4-4--4------4-4-4--4-4-2-|
E|---------------------------|2-2-2--2------2-2-2--2-2-0-|
 
e|------ ------ ------ ------|------ ------ ------ ------|
B|---------------------------|---------------------------|
G|---------------------------|---------------------------|
D|---------------------------|---------------------------|
A|-------4------4---2--0---2-|---------------------------|
E|---------------------------|2--------------------------|


  A  
e|0----- 0---0- 0----- 0-----|0----- 0---0- 0----- 0-----|
B|2------2---2--2------2-----|2------2---2--2------2-----|
G|2------2---2--2------2-----|2------2---2--2------2-----|
D|2------2---2--2------2-----|2------2---2--2------2-----|
A|0------0---0--0------0-----|0------0---0--0------0---0-|
E|---------------------------|-------------------------0-|
  I      don't  like   you       But I      love   you

  F#m   
e|2----- 2---2- 2----- 2---2-|2---2- 2---2- 2-2-2- 2-----|
B|2------2---2--2------2---2-|2---2--2---2--2-2-2--2-----|
G|2------2---2--2------2---2-|2---2--2---2--2-2-2--2-----|
D|4------4---4--4------4---4-|4---4--4---4--4-4-4--4-----|
A|4------4---4--4------4---4-|4---4--4---4--4-4-4--4---0-|
E|2------2---2--2------2---2-|2---2--2---2--2-2-2--2---0-|
  Seems  that I'm always             thinking of   you

  A             A7            D
e|0----- 0---0- 3---3- 3---3-|2-2-2- 2----- 2-2-2- 2-2-2-|
B|2------2---2--2---2--2---2-|3-3-3--3------3-3-3--3-3-3-|
G|2------2---2--2---2--2---2-|2-2-2--2------2-2-2--2-2-2-|
D|2------2---2--2---2--2---2-|0-0-0--0------0-0-0--0-0-0-|
A|0------0---0--0---0--0---0-|---------------------------|
E|---------------------------|---------------------------|
  Oh,    ho     ho you treat me badly          I  love you
e|------ ------ ------ ------|------ ------ ------ ------|
B|---------------------------|---------------------------|
G|---------------------------|---------------------------|
D|---------------------------|---------------------------|
A|---------------------------|-----------------------0-1-|
E|---------------------------|---------------------------|


  7             E             A
e|2---2- 2-2-2- 0---0- 0-0-0-|0----- 0---0- 0----- 0---0-|
B|4---4--4-4-4--0---0--0-0-0-|2------2---2--2------2---2-|
G|2---2--2-2-2--1---1--1-1-1-|2------2---2--2------2---2-|
D|4---4--4-4-4--2---2--2-2-2-|2------2---2--2------2---2-|
A|2---2--2-2-2--2---2--2-2-2-|0------0---0--0------0---0-|
E|--------------0---0--0-0-0-|---------------------------|
  madly    You've really got a hold   on me
                                    (You    really got a
e|------ ------ ------ ------|------ ------ ------ ------|
B|---------------------------|---------------------------|
G|---------------------------|---------------------------|
D|---------------------------|---------------------------|
A|2--------2-----------------|---------------------------|
E|-----------2--0------------|---------------------------|


                              F#m
e|0---0- 0----- 0---0- 0---0-|2----- 2---2- 2----- 2---2-|
B|2---2--2------2---2--2---2-|2------2---2--2------2---2-|
G|2---2--2------2---2--2---2-|2------2---2--2------2---2-|
D|2---2--2------2---2--2---2-|4------4---4--4------4---4-|
A|0---0--0------0---0--0---0-|4------4---4--4------4---4-|
E|---------------------------|2------2---2--2------2---2-|
             You really got a  hold on me
  hold   on me)                       (You  really got a
e|------ ------ ------ ------|------ ------ ------ ------|
B|---------------------------|---------------------------|
G|---------------------------|---------------------------|
D|---------------------------|---------------------------|
A|-------4------4---2--0---2-|---------------------------|
E|---------------------------|2--------------------------|


               
e|2----- 2---2- 2-2-2- 2---2-|
B|2------2---2--2-2-2--2---2-|
G|2------2---2--2-2-2--2---2-|
D|4------4---4--4-4-4--4---4-|
A|4------4---4--4-4-4--4---4-|
E|2------2---2--2-2-2--2---2-|
             baby   
  hold  on   me)

  A
e|0----- 0---0- 0----- 0-----|0----- 0---0- 0----- 0-----|
B|2------2---2--2------2-----|2------2---2--2------2-----|
G|2------2---2--2------2-----|2------2---2--2------2-----|
D|2------2---2--2------2-----|2------2---2--2------2-----|
A|0------0---0--0------0-----|0------0---0--0------0---0-|
E|---------------------------|-------------------------0-|
  I      don't  want   you       but I      need   you

  F#m
e|2----- 2---2- 2----- 2-----|2-2-2- 2---2- 2-2-2- 2-----|
B|2------2---2--2------2-----|2-2-2--2---2--2-2-2--2-----|
G|2------2---2--2------2-----|2-2-2--2---2--2-2-2--2-----|
D|4------4---4--4------4-----|4-4-4--4---4--4-4-4--4-----|
A|4------4---4--4------4-----|4-4-4--4---4--4-4-4--4---0-|
E|2------2---2--2------2-----|2-2-2--2---2--2-2-2--2---0-|
  Don't  wanna  kiss   you       but I      need   to

  A             A7            D
e|0----- 0---0- 3---3- 3---3-|2-2-2- 2----- 2-2-2- 2-2-2-|
B|2------2---2--2---2--2---2-|3-3-3--3------3-3-3--3-3-3-|
G|2------2---2--2---2--2---2-|2-2-2--2------2-2-2--2-2-2-|
D|2------2---2--2---2--2---2-|0-0-0--0------0-0-0--0-0-0-|
A|0------0---0--0---0--0---0-|---------------------------|
E|---------------------------|---------------------------|
  Oh,    ho     ho  you do me wrong now         my love is
e|------ ------ ------ ------|------ ------ ------ ------|
B|---------------------------|---------------------------|
G|---------------------------|---------------------------|
D|---------------------------|---------------------------|
A|---------------------------|-----------------------0-1-|
E|---------------------------|---------------------------|


  B7            E             A
e|2---2- 2-2-2- 0---0- 0-0-0-|0----- 0---0- 0----- 0---0-|
B|4---4--4-4-4--0---0--0-0-0-|2------2---2--2------2---2-|
G|2---2--2-2-2--1---1--1-1-1-|2------2---2--2------2---2-|
D|4---4--4-4-4--2---2--2-2-2-|2------2---2--2------2---2-|
A|2---2--2-2-2--2---2--2-2-2-|0------0---0--0------0---0-|
E|--------------0---0--0-0-0-|---------------------------|   
 strong now, You really got a hold   on me
                                    (You    really got a
e|------ ------ ------ ------|------ ------ ------ ------|
B|---------------------------|---------------------------|
G|---------------------------|---------------------------|
D|---------------------------|---------------------------|
A|2--------------------------|---------------------------|
E|-----------2--0------------|---------------------------|


                              F#m
e|0---0- 0----- 0---0- 0---0-|2----- 2-2-2- 2----- 2---2-|
B|2---2--2------2---2--2---2-|2------2-2-2--2------2---2-|
G|2---2--2------2---2--2---2-|2------2-2-2--2------2---2-|
D|2---2--2------2---2--2---2-|4------4-4-4--4------4---4-|
A|0---0--0------0---0--0---0-|4------4-4-4--4------4---4-|
E|---------------------------|2------2-2-2--2------2---2-|
             You really got a  hold      on me
  hold   on me)                       (You  really got a
e|------ ------ ------ ------|------ ------ ------ ------|
B|---------------------------|---------------------------|
G|---------------------------|---------------------------|
D|---------------------------|---------------------------|
A|-------4------4---2--0---2-|---------------------------|
E|---------------------------|2--------------------------|
[ Tab from: http://www.guitartabs.cc/tabs/b/beatles/you_really_got_a_hold_on_me_tab.html ]
                           E
e|2----- 2---2- 2-2-2- 2-2-0-|
B|2------2---2--2-2-2--2-2-0-|
G|2------2---2--2-2-2--2-2-1-|
D|4------4---4--4-4-4--4-4-2-|
A|4------4---4--4-4-4--4-4-2-|
E|2------2---2--2-2-2--2-2-0-|
             baby   
  hold  on   me)

  A             A7            D
e|5-5-5- 5----- 5-5-5- 5-----|2-2-2- 2----- 2-2-2- 2-----|
B|5-5-5--5------8-8-8--8-----|3-3-3--3------3-3-3--3-----|
G|6-6-6--6------6-6-6--6-----|2-2-2--2------2-2-2--2---0-|
D|7-7-7--7------7-7-7--7-----|0-0-0--0------0-0-0--0---0-|
A|7-7-7--7------7-7-7--7-----|---------------------------|
E|5-5-5--5------5-5-5--5-----|---------------------------|
  I      love   you and all I want    you to do is just

  A                                         E
e|0----- ------ 0----- ------|0----- ------ 0----- ------|
B|2-------------2------------|2-------------0------------|
G|2-------------2------------|2-------------1------------|
D|2-------------2------------|2-------------2------------|
A|0-------------0------------|0-------------2------------|
E|---------------------------|--------------0------------|
  Hold me       hold me       hold me       hold me

                       A             F#m    E
e|------ ------ ------|0----- 0---0- 2----- 0-----|
B|--------------------|2------2---2--2------0-----|
G|--------------------|2------2---2--2------1-----|
D|--------------------|2------2---2--4------2-----|
A|--------------------|0------0---0--4------2-----|
E|--------------------|--------------2------0-----|

e|----0- 0-2-5- 7-5-2-|5----- ------ ------ ------|
B|--------------------|---------------------------|
G|--------------------|---------------------------|
D|--------------------|-------2------4------2-----|
A|--------------------|-------2---4--4------2---4-|
E|----0--0-2-5--7-5-2-|5--------------------------|


  F#m    E      A                           F#m    E
e|2----- 0----- 0----- ------|0----- 0---0- 2----- 0-----|
B|2------0------2------------|2------2---2--2------0-----|
G|2------1------2------------|2------2---2--2------1-----|
D|4------2------2------------|2------2---2--4------2-----|
A|4------2------0------------|0------0---0--4------2-----|
E|2------0-------------------|--------------2------0-----|
                       Tied up                           
e|------ ------ ------ ------|------ ------ ------ ------|
B|---------------------------|---------------------------|
G|2------1------2------------|-------2------4------2-----|
D|4------2------2------------|-------2------4------2---4-|
A|4------2------0------------|0----------4-------------4-|
E|---------------------------|---------------------------|



  F#m    E      A
e|2----- 0----- 0----- ------|
B|2------0------2------------|
G|2------1------2------------|
D|4------2------2------------|
A|4------2------0------------|
E|2------0-------------------|
                       Tied up
e|------ ------ ------ ------|
B|---------------------------|
G|2------1------2------------|
D|4------2------2------------|
A|4------2------0------------|
E|---------------------------|


  A
e|0----- 0---0- 0----- 0-----|0----- 0---0- 0---0- 0---0-|
B|2------2---2--2------2-----|2------2---2--2---2--2---2-|
G|2------2---2--2------2-----|2------2---2--2---2--2---2-|
D|2------2---2--2------2-----|2------2---2--2---2--2---2-|
A|0------0---0--0------0-----|0------0---0--0---0--0---0-|
E|---------------------------|---------------------------|
  I      wanna  leave  you       don't wanna stay  here

  F#m
e|2----- 2---2- 2----- 2---2-|2---2- 2---2- 2----- 2---2-|
B|2------2---2--2------2---2-|2---2--2---2--2------2---2-|
G|2------2---2--2------2---2-|2---2--2---2--2------2---2-|
D|4------4---4--4------4---4-|4---4--4---4--4------4---4-|
A|4------4---4--4------4---4-|4---4--4---4--4------4---4-|
E|2------2---2--2------2---2-|2---2--2---2--2------2---2-|
  Don't  wanna  spend             another   day    here
 
  A             A7            D 
e|0---0- 0----- 3---3- 3---3-|2-2-2- 2---2- 2-2-2- 2-2-2-|
B|2---2--2------2---2--2---2-|3-3-3--3---3--3-3-3--3-3-3-|
G|2---2--2------2---2--2---2-|2-2-2--2---2--2-2-2--2-2-2-|
D|2---2--2------2---2--2---2-|0-0-0--0---0--0-0-0--0-0-0-|
A|0---0--0------0---0--0---0-|---------------------------|
E|---------------------------|---------------------------|
  Oh,    ho     ho  I  wanna  split now       I just can't
e|------ ------ ------ ------|------ ------ ------ ------|
B|---------------------------|---------------------------|
G|---------------------------|---------------------------|
D|---------------------------|---------------------------|
A|---------------------------|-----------------------0-1-|
E|---------------------------|---------------------------|


  B7            E             A
e|2---2- 2---2- 0---0- 0---0-|0----- 0----- 0----- 0---0-|
B|4---4--4---4--0---0--0---0-|2------2------2------2---2-|
G|2---2--2---2--1---1--1---1-|2------2------2------2---2-|
D|4---4--4---4--2---2--2---2-|2------2------2------2---2-|
A|2---2--2---2--2---2--2---2-|0------0------0------0---0-|
E|--------------0---0--0---0-|---------------------------|   
  quit now,  You really got a hold   on me
                                    (You    really got a
e|------ ------ ------ ------|------ ------ ------ ------|
B|---------------------------|---------------------------|
G|---------------------------|---------------------------|
D|---------------------------|---------------------------|
A|2--------------------------|---------------------------|
E|-----------2--0------------|---------------------------|

                              F#m
e|0----- 0----- 0----- 0---0-|2----- 2----- 2---2- 2-----|
B|2------2------2------2---2-|2------2------2---2--2-----|
G|2------2------2------2---2-|2------2------2---2--2-----|
D|2------2------2------2---2-|4------4------4---4--4-----|
A|0------0------0------0---0-|4------4------4---4--4-----|
E|---------------------------|2------2------2---2--2-----|
             You really got a  hold      on me
  hold   on me)                       (You  really got a
e|------ ------ ------ ------|------ ------ ------ ------|
B|---------------------------|---------------------------|
G|---------------------------|---------------------------|
D|---------------------------|---------------------------|
A|-------4------4---2--0---2-|---------------------------|
E|---------------------------|2--------------------------|


 
                           E
e|2----- 2---2- 2----- 2---0-|
B|2------2---2--2------2---0-|
G|2------2---2--2------2---1-|
D|4------4---4--4------4---2-|
A|4------4---4--4------4---2-|
E|2------2---2--2------2---0-|
             baby   
  hold  on   me)

  A             A7            D
e|5----- 5---5- 5----- 5---5-|2---2- 2---2- 2---2- 2-----|
B|5------5---5--8------8---8-|3---3--3---3--3---3--3-----|
G|6------6---6--6------6---6-|2---2--2---2--2---2--2---0-|
D|7------7---7--5------5---5-|0---0--0---0--0---0--0---0-|
A|7------7---7--7------7---7-|---------------------------|
E|5------5---5--5------5---5-|---------------------------|
  I      love   you and all I want    you to do is just

  A                                         E
e|0----- ------ 0----- ------|0----- ------ 0----- ------|
B|2-------------2------------|2-------------0------------|
G|2-------------2------------|2-------------1------------|
D|2-------------2------------|2-------------2------------|
A|0-------------0------------|0-------------2------------|
E|---------------------------|--------------0------------|
         Please        Squeeze
 (Hold me       hold me       hold me       hold me)


                       A
e|----0- 0-2-5- 7-5-2-|0----- 0---0- 0---0- 0---0-|
B|--------------------|2------2---2--2---2--2---2-|
G|--------------------|2------2---2--2---2--2---2-|
D|--------------------|2------2---2--2---2--2---2-|
A|--------------------|0------0---0--0---0--0---0-|
E|----0--0-2-5--7-5-2-|---------------------------|
                   You really got a  hold   on me
                                              (You
                              F#m
e|0---0- 0----- 0---0- 0---0-|2---2- 2-2-2- 2----- 2---2-|
B|2---2--2------2---2--2---2-|2---2--2-2-2--2------2---2-|
G|2---2--2------2---2--2---2-|2---2--2-2-2--2------2---2-|
D|2---2--2------2---2--2---2-|4---4--4-4-4--4------4---4-|
A|0---0--0------0---0--0---0-|4---4--4-4-4--4------4---4-|
E|---------------------------|2---2--2-2-2--2------2---2-|
                          You really got a  hold  on me
  really got a  hold   on me)                       (You

                              A
e|2-2-2- 2----- 2---2- 2-2-2-|0----- ------ 0----- ------|
B|2-2-2--2------2---2--2-2-2-|2-------------2------------|
G|2-2-2--2------2---2--2-2-2-|2-------------2------------|
D|4-4-4--4------4---4--4-4-4-|2-------------2------------|
A|4-4-4--4------4---4--4-4-4-|0-------------0------------|
E|2-2-2--2------2---2--2-2-2-|---------------------------|
  really got a  hold   on me)
e|------ ------ ------ ------|------ ------ ------ ------|
B|---------------------------|---------------------------|
G|---------------------------|---------------------------|
D|---------------------------|---------------------------|
A|---------------------------|--------------0------0-----|
E|---------------------------|----------------2-0----2-0-|

 (.
e|0----- ------ ------ ------|------ ------ ------ ------|
B|2--------------------------|---------------------------|
G|2--------------------------|---------------------------|
D|2--------------------------|---------------------------|
A|0--------------------------|---------------------------|
E|---------------------------|---------------------------|

e|------ ------ ------ ------|------ ------ ------ ------|
B|---------------------------|---------------------------|
G|2--------------------------|---------------------------|
D|2--------------------------|---------------------------|
A|0--------------------------|---------------------------|
E|---------------------------|---------------------------|


        B  Bend
        R  Release
        /  slide up
        \  slide down
        H  hammer-on
        P  pull-off
        ~  vibrato
        +  harmonic
        x  Mute note
        . - play note like a dot in standard notation
        ^ - ties two notes together
Comments