Beatles - You Never Give Me Your Money Chords & Tabs

 

You Never Give Me Your Money Chords & Tabs

Beatles Chords & Tabs

Version: 1 Type: Bass Tab 0 ratings
1 star 2 stars 3 stars 4 stars 5 stars
comments

You Never Give Me Your Money Bass Tab

You Never Give Me Your Money.btab
Beatles
TablEdited by Jan Bjorklund
Tuning : E A D G 	Time Signature: 4/4 Tempo 82

 I never give you|my     |        number...       |       |        
|--------------------------------|--------------------------------|
|--------------------------------|0-----------0-------2---3/--4---|
|0-------------------------------|--------------------------------|
|--------------------------------|--------------------------------|

 I only give you my      |        situation...    |       |        
|0-------------------------------|--------------------------------|
|--------------------------------|--------------------0---2/3/2---|
|--------------------------------|3-----------3-------------------|
|--------------------------------|--------------------------------|

 and in the middle of in-|        vestigation     |   I   |        
|--------------------------------|--------------------------------|
|3-------------------------------|--------0---2-------------------|
|--------------------------------|2---3---------------------------|
|--------------------------------|------------------------0-------|

 break down...   |       |        |       |       |       |        
|--------------------------------|----------------0---------------|
|--------------------------------|--------------------3---2---0---|
|0-------------------------------|--------------------------------|
|--------------------------------|--------------------------------|
[ Tab from: http://www.guitartabs.cc/tabs/b/beatles/you_never_give_me_your_money_btab.html ]
 Out of college....      |        |       |       |       |        
|--------0---------------1-------|2---4---5---2---5---3---2---0---|
|----2-------2---2---4-------2---|--------------------------------|
|3-------------------------------|--------------------------------|
|--------------------------------|--------------------------------|

 |       |       |       |        |       |       |       |        
|----0-----------0---------------|--------0---2---3---2---0-------|
|3-3-----2---3-------3---2---0---|----2-----------------------2---|
|--------------------------------|3-------------------------------|
|--------------------------------|--------------------------------|

 |       |       |       |        |       |       |       |        
|--------0---------------1-------|2---4---5---2---5---3---2---0---|
|----2-------2---2---4-------2---|--------------------------------|
|3-------------------------------|--------------------------------|
|--------------------------------|--------------------------------|

 |       |       |       |        |       |       |       |        
|----0---2-------0---------------|--------0-0-2---3---2---0-------|
|3-----------3-------3---2---0---|----2-----------------------2---|
|--------------------------------|3-------------------------------|
|--------------------------------|--------------------------------|

 |       |       |       |        |       |       |       |        
|--------------------------------|--------------------------------|
|--------------------------------|--------------------------------|
|1-----------1-------------------|--------------------------------|
|--------------------------------|1-----------1-------------------|


Created with TablEdit http://www.tabledit.com/
Comments