Beatles - You Like Me Too Much (solo) Chords & Tabs

 

You Like Me Too Much (solo) Chords & Tabs

Beatles Chords & Tabs

Version: 1 Type: Tab 0 ratings
1 star 2 stars 3 stars 4 stars 5 stars
comments

You Like Me Too Much (solo) Tab

   
#----------------------------------PLEASE NOTE---------------------------------#
#This file is the author's own work and represents their interpretation of the #
#song. You may only use this file for private study, scholarship, or research. #
#------------------------------------------------------------------------------#

TAB: You Like Me Too Much (solo)
MUSIC BY: The Beatles (From the Help! album)  
TABBED BY: The Beatles Central Team (jpgr_beatles@yahoo.com) 
[ Tab from: http://www.guitartabs.cc/tabs/b/beatles/you_like_me_too_much_solo_tab.html ]
Solo: 
 
   D7                                G 
E|---------7-------6---5-------3---|-------------------------------- 
B|---------------------------------|-------------------------------- 
G|---------7-------6---5-------4---|-------------------------------- 
D|---------------------------------|-------------------------------- 
A|---------------------------------|-------------------------------- 
E|---------------------------------|-------------------------------- 
   ^       ^       ^       ^         ^       ^       ^       ^                    
 
                                   
E|---------7-------6---5-------3---|-------------------------------- 
B|---------------------------------|-------------------------------- 
G|---------7-------6---5-------4---|-------------------------------- 
D|---------------------------------|-------------------------------- 
A|---------------------------------|-------------------------------- 
E|---------------------------------|-------------------------------- 
   ^       ^       ^       ^         ^       ^       ^       ^    
 
                                     C 
E|---------------------------------|-------------------------------- 
B|---------1-------3---4-------5---|-------------------------------- 
G|---------------------------------|-------------------------------- 
D|---------2-------3---4-------5---|-------------------------------- 
A|---------------------------------|-------------------------------- 
E|---------------------------------|-------------------------------- 
   ^       ^       ^       ^         ^       ^       ^       ^        
 
                                     G 
E|---------7-------6---5-------3---|-------------------------------- 
B|---------------------------------|-------------------------------- 
G|---------7-------6---5-------4---|-------------------------------- 
D|---------------------------------|-------------------------------- 
A|---------------------------------|-------------------------------- 
E|---------------------------------|-------------------------------- 
   ^       ^       ^       ^         ^       ^       ^       ^     
 
                                     D7 
E|---------7-------8---9-------10--|-------------------------------- 
B|---------------------------------|-------------------------------- 
G|---------7-------9---10------11--|-------------------------------- 
D|---------------------------------|-------------------------------- 
A|---------------------------------|-------------------------------- 
E|---------------------------------|-------------------------------- 
   ^       ^       ^       ^         ^       ^       ^       ^       
 
 
E|---------10------8---7-------5---|-------------------------------- 
B|---------------------------------|-------------------------------- 
G|---------11------9---7-------5---|-------------------------------- 
D|---------------------------------|-------------------------------- 
A|---------------------------------|-------------------------------- 
E|---------------------------------|-------------------------------- 
   ^       ^       ^
 
Comments