Beatles - Yesterday Chords & Tabs

 

Yesterday Chords & Tabs

Beatles Chords & Tabs

Version: 5 Type: Tab 0 ratings
1 star 2 stars 3 stars 4 stars 5 stars
comments

Yesterday Tab

   
                         Yesterday - The Beatles
                           Instrumental Edition 
                                                                                
|-----------------|-----------0-2-3-|-2---0-0-----------|-----0-0---------|
|---------3-----3-|---------4-------|---0-------0-----0-|---1-----3-1-0---|
|-------4---4---4-|-----4-2-2-------|---0-----0---0---0-|---0-----------2-|
|-7\5-5-----------|---2-----4-------|-------------------|---------0-------|
|-----------------|---4-----2-------|-------7-------5---|-3---------------|
|-----3-------3---|-2---------------|-0-----------------|-----------------|
                                                                                
[ Tab from: http://www.guitartabs.cc/tabs/b/beatles/yesterday_tab_ver_5.html ]
                                                    Fine                        
|----------------|---0-------------|-------------------||-----------------|
|1---0-0-0-------|---0---------5---|-----0-0-0---------||-0-------0-------|
|--0-------0-2---|---0-------6-----|-0-------0-0---0--*||-----2-------2---|
|--0-------0---0-|-5---9\7-7-------|---2-----0-0---0--*||---2---2---1---1-|
|----------------|---------0-----7-\-3-----------------||-2-------2-------|
|3-------3---2---|-0---------------|-----3-------3-----||-----------------|
                                                                                

                                            N.H.                                    
|0---2---3---2---|-2-----0-----0---|------------------|-----------------|
|--0---3---1---0-|-----1---3-------|-0-------12-------|-0-------0-------|
|--0---2---0---0-|---2-------5---5-|-----0------0---0-|-----2-------2---|
|2---0---------0-|-----------4---4-|---0---0----0---0-|---2---2---1---1-|
|--------3---2---|-0-------5-------|------------------|-2-------2-------|
|----------------|-----------------|-3------------3---|-----------------|
                                                                                

                                             To the start                
|0---2---3---2---|-2-----0-----2---|/3------------------||
|--0---3---1---0-|-----1---3-----1-|--------0----0----0-||
|--0---2---0---0-|---2-------5---2-|---0----0----0----0-||
|2---0---------0-|-----------4-----|---0-12---10---9----||
|--------3---2---|-0-------5-------|--------------------||
|----------------|-----------------|-3------------------||
                                                                                
Comments