Beatles - Yer Blues Chords & Tabs

 

Yer Blues Chords & Tabs

Beatles Chords & Tabs

Version: 1 Type: Tab 0 ratings
1 star 2 stars 3 stars 4 stars 5 stars
comments

Yer Blues Tab

   
Yer Blues (Lennon/McCartney)


Verse:
 E
||----------------------||
||---3-3-3--------------||
||---4-4-4--------------||
||-2--------5(7)5(7)5-2-||
||----------------------||
||----------------------||

 A
---------------------|
---3-3-3-------------|
---4-4-4-----------2-|
-2-------5(7)5(7)5---|
---------------------|
---------------------|

   E
--------------------------------|
---3-3-3----------------/3-3-3\-|
---4-4-4----------------/4-4-4\-|
-2--------5(7)5(7)5-2-----------|
--------------------------------|
--------------------------------|

 G                         B
-------------------7\5-4-3-2---|
-------------------------------|
----------------/8--\6-4-3-2---|
-------------5-----------------|
--------5-/7-------------------|
-3--5/7------------------------|

lyrics:

Ringo: One...Two...Three

        E
Yes I'm lonely wanna die
        A            E
Yes I'm lonely wanna die
   G
If I ain't dead already
B7                            E    A  E  B7
Ooh girl you know the reason why.

In the morning wanna die
In the evening wanna die
If I ain't dead already
Ooh girl you know the reason why.

Bridge:

E                         A E
My mother was of the sky
E                         A E
My father was of the earth
E                         A E
But I am of the universe
And you know what it's worth

||----------------------|
||-10(12)---8---8(9)----|
||------------9------9~-|
||----------------------|
||----------------------|
||----------------------|
A                E
I'm lonely wanna die
G
If I ain't dead already
B7                           E    A  E B7
Ooh girl you know the reason why.

The eagle picks my eye
The worm he licks my bone
I feel so suicidal
Just like Dylan's Mr. Jones
Lonely wanna die
If I ain't dead already
Ooh girl you know the reason why.
[ Tab from: http://www.guitartabs.cc/tabs/b/beatles/yer_blues_tab.html ]
Black cloud crossed my mind
Blue mist round my soul
Feel so suicidal
Even hate my rock and roll
(swing beat)
Wanna die yeah wanna die
If I ain't dead already
Ooh girl you know the reason why.

(guitar solo)
   8x                4x                   4x
||----------------||-------------------||---------------------|
||----------------||-------------------||---------------------|
||-9h12-9h12-9h12-||-12h14-12h14-12h14-||-9h12-9h12-9h12-9h12-|
||-9h12-9h12-9h12-||-12h14-12h14-12h14-||-9h12-9h12-9h12-9h12-|
||----------------||-------------------||---------------------|
||----------------||-------------------||---------------------|

||--------------------------------------------------------|
||------------------12-9-12-9-----------------------------|
||-11~--9-9-11-11~--12-9-12-9--12-9-12--9-12-9------------|
||-11~--9-9-11-11~-------------12-9-12--9-12-9-12---------|
||---------------------------------------------12--10-----|
||----------------------------------------------------12~-|

||--------------------------------------------------------------|
||-15(17)-15(17)~--15(17)-15(17)~---15(17)-15(17)-15(17)-15(17)-|
||--------------------------------------------------------------|
||--------------------------------------------------------------|
||--------------------------------------------------------------|
||--------------------------------------------------------------|

||-15(17)-15(17)--15(17)-15(17)-15(17)-12~-|
||-----------------------------------------|
||-----------------------------------------|
||-----------------------------------------|
||-----------------------------------------|
||-----------------------------------------|

||------------------------------------------------------------|
||------------------------------------------------------------|
||-------------12-----12----12------12-14-14(16)-14(16)14-----|
||-------12h14----14-----14----14-----------------------------|
||-12h14------------------------------------------------------|
||------------------------------------------------------------|

||------------------------------|
||-15(17)15---------------------|
||----------14(16)14-12(13)-----|
||--------------------------14--|
||------------------------------|
||------------------------------|

(repeat 1st verse off mike)
Comments