Beatles - Words Of Love Chords & Tabs

 

Words Of Love Chords & Tabs

Beatles Chords & Tabs

Version: 1 Type: Tab 0 ratings
1 star 2 stars 3 stars 4 stars 5 stars
comments

Words Of Love Tab

   
#----------------------------------PLEASE NOTE---------------------------------#
#This file is the author's own work and represents their interpretation of the #
#song. You may only use this file for private study, scholarship, or research. #
#------------------------------------------------------------------------------#

TAB: Words of Love 
MUSIC BY: Buddy Holly (Covered by the Beatles on Beatles For Sale)  
TABBED BY: The Beatles Central Team (jpgr_beatles@yahoo.com) 
       
        
Intro:  
 
   A                                 D               E 
E|-5-------5-------0-------0-------|-----2-----------0-----------0-- 
B|-5-------5-------2/5-----5---2---|---------3-----------2---0------ 
G|---------------------------------|-2-----------2------------------ 
D|---------------------------------|-------------------------------- 
A|---------------------------------|-------------------------------- 
E|---------------------------------|-------------------------------- 
   ^       ^       ^       ^         ^       ^       ^       ^     
 
Repeat this figure two more times, then play this: 
 
   A                                 D               E 
E|-5-------5-----5-0---0-----------|-----2-----------0-------------- 
B|-5-------5-----5-5---5-------0---|---------3-----------2---4------ 
G|---------------------------------|-2-----------2---------------1-- 
D|---------------------------------|-------------------------------- 
A|---------------------------------|-------------------------------- 
E|---------------------------------|-------------------------------- 
   ^       ^       ^       ^         ^       ^       ^       ^    
[ Tab from: http://www.guitartabs.cc/tabs/b/beatles/words_of_love_tab.html ]
E|---------------------------------|-----2-------2---0-------------- 
B|-2-------2-------2-------2-----2-|-----3-------3-------2---0---0-- 
G|-2-------2-------2-------2-----2-|-2------------------------------ 
D|-2-------2-------2-------2-----2-|-------------------------------- 
A|---------------------------------|-------------------------------- 
E|---------------------------------|-------------------------------- 
   ^       ^       ^       ^         ^       ^       ^       ^    
   A                                 D               E 
E|---------------------------------|-----2-------2---0-------------- 
B|-2-------2-------2-------2-----2-|-----3-------3-------2---0---0-- 
G|-2-------2-------2-------2-----2-|-2------------------------------ 
D|-2-------2-------2-------2-----2-|-------------------------------- 
A|---------------------------------|-------------------------------- 
E|---------------------------------|-------------------------------- 
   ^       ^       ^       ^         ^       ^       ^       ^   
   A                                 D               E 
E|---------------------------------|-----2-------2---0-------------- 
B|-2-------2-------2-------2-----2-|-----3-------3-------2---0---0-- 
G|-2-------2-------2-------2-----2-|-2------------------------------ 
D|-2-------2-------2-------2-----2-|-------------------------------- 
A|---------------------------------|-------------------------------- 
E|---------------------------------|-------------------------------- 
   ^       ^       ^       ^         ^       ^       ^       ^   
    A                                 D               E 
E|-5-------5-------0-------0-------|-----2-----------0-----------0-- 
B|-5-------5-------2/5-----5---2---|---------3-----------2---0------ 
G|---------------------------------|-2-----------2------------------ 
D|---------------------------------|-------------------------------- 
A|---------------------------------|-------------------------------- 
E|---------------------------------|-------------------------------- 
   ^       ^       ^       ^         ^       ^       ^       ^      
 
Verse 3: 
 
  
(Let me hear you say      the words I long to ect)
 
 
 
Coda: 
 
   A                                 D               E 
   um                                um 
E|---------------------------------|-----2-------2---0-----------0-- 
B|-2-------2-------2-------2-------|-----3-------3-------2---0------ 
G|-2-------2-------2-------2-------|-2------------------------------ 
D|-2-------2-------2-------2-------|-------------------------------- 
A|---------------------------------|-------------------------------- 
E|---------------------------------|-------------------------------- 
   ^       ^       ^       ^         ^       ^       ^       ^    
   A                                 D               E 
   um                                Ah   
E|-5-------5-------0---0---0-----0-|-----2-----------0-----------0-- 
B|-5-------5-------2---5---5-------|---------3-----------2---0------ 
G|---------------------------------|-2-----------2------------------ 
D|---------------------------------|-------------------------------- 
A|---------------------------------|-------------------------------- 
E|---------------------------------|-------------------------------- 
   ^       ^       ^       ^         ^       ^       ^       ^      
   A                                 D               E 
   Ah                                Ah 
E|-5-------5-------0---0---0-----0-|-----2-----------0-----------0-- 
B|-5-------5-------2---5---5-------|---------3-----------2---0------ 
G|---------------------------------|-2-----------2------------------ 
D|---------------------------------|-------------------------------- 
A|---------------------------------|-------------------------------- 
E|---------------------------------|-------------------------------- 
   ^       ^       ^       ^         ^       ^       ^       ^     
 
Comments