Beatles - With A Little Help From My Friends Chords & Tabs

 

With A Little Help From My Friends Chords & Tabs

Beatles Chords & Tabs

Version: 2 Type: Bass Tab 0 ratings
1 star 2 stars 3 stars 4 stars 5 stars
comments

With A Little Help From My Friends Bass Tab

The Beatles
With a Little Help From My Friends

Based on a previous version in wide circulation. 
I have attempted to correct octaves, added the third verse variation,
and generally looped around in WinAmp a lot.

There are still the odd 5th and a bit of timing to explore further ;)

Ian Spencer (JustForNewsgroups@Tesco.net)

Verse 1

G|9----8----|6---------|11--------|--8H9H8------|----------|---------9|
D|----------|----------|-----9----|--------11-9-|-----99---|-----9h11-|
A|----------|-----9----|----------|7------------|7---------|9---------|
E|----------|----------|----------|-------------|----------|----------|

G|----------|--/9--/9--/9|
D|-----9----|------------|
A|9---------|7-----------|
E|----------|------------|

Chorus 

G|----------|-----------|----------|----------|-----------|--9-8-6----|
D|------7--7|-----------|------7--7|----------|-----------|-------97-9|
A|5--5------|7--7--7--7-|5--5------|7--6-44--2|-4--7----4-|7----------|
E|----------|-----------|----------|----------|5----------|-----------|

Verse 2
[ Tab from: http://www.guitartabs.cc/tabs/b/beatles/with_a_little_help_from_my_friends_btab_ver_2.html ]
G|------|-14-13--11-----|------|--8H9P8----|------|-131413-11-----|
D|---9--|------------14-|---9--|------11-9-|---99-|------------14-|
A|7-----|9--------------|9-----|7----------|7-----|9--------------|
E|------|---------------|------|-----------|------|---------------|

G|------|---/9-/9-/9--|
D|---9--|-------------|
A|9-----|7------------|
E|------|-------------|


Chorus (2)
                    
G|--------|--------|--------|--------|-----------|--------|
D|----7-7-|--------|----7-7-|--------|-----------|--------|
A|5-5-----|7-7-7-7-|5-5-----|5h7-5-42|7--4-7--4--|7-7-7-7-|
E|--------|--------|--------|--------|-5---------|--------|


Middle 8

G|--------|---------|--------|----------|----------------|
D|---11---|9--------|--------|----------|7---7----7----7-|
A|--------|--11--9--|7--6-4--|7-7--5-5--|----------------|
E|9-------|---------|--------|----------|----------------|


Verse 3:

G|----------|---------9|----------|---8H98-----|
D|-----99---|-----9h11-|-----9----|-------11--9|
A|7---------|9---------|9---------|7-----------|
E|----------|----------|----------|------------|


G|----------|---------9|----------|--/9--/9--/9|
D|-----99---|-----9h11-|-----9----|------------|
A|7---------|9---------|9---------|7-----------|
E|----------|----------|----------|------------|


Chorus (2) / Middle 8 / Chorus (2) then

End

G|----|----|----------|----------|-----|
D|----|7---|----------|----------|-----|
A|5---|----|----------|----------|-----|
E|----|----|3-3-3-2-3-|5-5-5-0-5-|0----|
Comments