Beatles - While My Guitar Gently Weeps Chords & Tabs

 

While My Guitar Gently Weeps Chords & Tabs

Beatles Chords & Tabs

Version: 2 Type: Tab 4 ratings
1 star 2 stars 3 stars 4 stars 5 stars
comments

While My Guitar Gently Weeps Tab

Artist: Beatles (George Harrison)
Title: While My Guitar Gently Weeps
Album: The White Album

-+-+-+-+-+-+-+-+-+-+-+-+-
Tabbed by Michael Griffin
-+-+-+-+-+-+-+-+-+-+-+-+-

This is the main parts of the song, but not the really soft background
stuff. If you want those parts ask someone else.

(PIANO) 00:01
                                                                  *
e:--0-5-5-5-5-5-(repeat-5-)-7-7-8-8-10--8-10-12--8-5-10-7-3-10-5-0-8-|
B:-------------------------------------------------------------------|
G:-------------------------------------------------------------------|
D:-------------------------------------------------------------------|
A:-------------------------------------------------------------------|
E:-------------------------------------------------------------------|

At the * is the guitar part:

00:15
e:--0-3-0-----3/5-5-|-----------0-----|
B:--------0---------|-------------1---|
G:----------2-------|-2--2-2-2------2-|
D:------------------|-----------------|
A:------------------|-----------------|
E:------------------|-----------------|


00:31
e:--8-8-8\5-4-4-5\4-0-0--|
B:-----------------------|
G:-----------------------|
D:-----------------------|
A:-----------------------|
E:-----------------------|


00:47                 01:38
e:--0--0-5-3-0-------|||-0-0-5-5-7\8-5--|  
B:-------------3-1/2-|||----------------|
G:-------------------|||----------------|
D:-------------------|||----------------|
A:-------------------|||----------------|
E:-------------------|||----------------|

[ Tab from: http://www.guitartabs.cc/tabs/b/beatles/while_my_guitar_gently_weeps_tab_ver_2.html ]
01:56 (solo) ~is vibrato
e|------------|----------10h12-|-8~---------|------8-8~--|
B|-----13\10--|-8h10-/13-------|---10-------|-8h10-------|
G|------------|----------------|------------|------------|
D|------------|----------------|------------|------------|
A|------------|----------------|------------|------------|
E|------------|----------------|------------|------------|
      
e|------8-8~--|------------|-8-10h12p10-8-12~-|----15\----|---17~-----|
B|-8h10-------|-------8h10-|------------------|---------15p13---------|
G|------------|------------|------------------|-----------|-----------|
D|------------|------------|------------------|-----------|-----------|
A|------------|------------|------------------|-----------|-----------|
E|------------|------------|------------------|-----------|-----------|
     
 -17-17~---17p15-|-17----------15-----|----------15-------|
 ----------------|----17-15h17----15~-|-13h15-17----17p15-|
 ----------------|--------------------|-------------------|
 ----------------|--------------------|-------------------|
 ----------------|--------------------|-------------------|
 ----------------|--------------------|-------------------|
      
 -------------------|--------------------|-----------------|
 -13~---13----------|-13-13--------------|-----------------|
 ----------14p12h14-|--------------12----|-----------------|
 -------------------|--------12h14----14-|-12-12--10h12p10-|
 -------------------|--------------------|-----------------|
 -------------------|--------------------|-----------------|
     
 -------------------|-------------17-15-17-17p15h17-|
 -------------13-13-|-15-15-17-17-------------------|
 ----12-14-14-------|-------------------------------|
 -14----------------|-------------------------------|
 -------------------|-------------------------------|
 -------------------|-------------------------------|


02:44
Strum the little e cord: e-0-0-0-0-0-0-0-|
                         B---------------|
                         G---------------|
                         D---------------|
                         A---------------|
                         E---------------|

03:01
e--4/5-8-12-5~-|--5-5-5-|
B--------------|--------|
G--------------|--------|
D--------------|--------|
A--------------|--------|
E--------------|--------|


03:17
e--4-5-5/8-8\5--4-5-5-5p3------|
B------------------------5\3-1-|
G------------------------------|
D------------------------------|
A------------------------------|
E------------------------------|


03:24
e--0---0---0---0---0---0---|
B----3---3---3---3---3---3-|
G--------------------------|
D--------------------------|
A--------------------------|
E--------------------------|


03:34                   03:48
e--0-0-0-0-(repeat-0-)-|-5-5-0-3/5-5-0-5-0-5-0-10-8-5--------------------|
B----------------------|------------------------------5\3-1-----1---1/13-|
G----------------------|------------------------------------0-2----------|
D----------------------|-------------------------------------------------|
A----------------------|-------------------------------------------------|
E----------------------|-------------------------------------------------|


04:00
e--10-10-10p8-10p8h10----8-8----------8-8~--8-7b8-8-10-10/12-17-12\10-8-5-----|
B---------------------10-----10-10-10-----------------------------------------|
G-----------------------------------------------------------------------------|
D-----------------------------------------------------------------------------|
A-----------------------------------------------------------------------------|
E-----------------------------------------------------------------------------|


04:12
e--17--17--17-15/17-17--15-17-17-17--12-15-17-15-17--12-12-15-17-15-17--10-12-|
B-----------------------------------------------------------------------------|
G-----------------------------------------------------------------------------|
D-----------------------------------------------------------------------------|
A-----------------------------------------------------------------------------|
E-----------------------------------------------------------------------------|

--15-17--15-8-10------8-8~-|
-----------------8-10------|
---------------------------|
---------------------------|
---------------------------|
---------------------------|

Finish it up with some soft stuff... I don't know exactly what, but you'll figure it out if you're that obsessed with this song. Have a good one.
Comments