Beatles - While My Guitar Gently Weeps Chords & Tabs

 

While My Guitar Gently Weeps Chords & Tabs

Beatles Chords & Tabs

Version: 1 Type: Bass Tab 0 ratings
1 star 2 stars 3 stars 4 stars 5 stars
comments

While My Guitar Gently Weeps Bass Tab

Heres to the greatest band ever

tuning-standard-EADG

there are 2 riffs in this song, the verse amd the chorus, truly its a very easy song. 
most of of the focus is on the guitar, paul just plays bass notes, sometimes though he 
the bass note more than once.

Verse
[ Tab from: http://www.guitartabs.cc/tabs/b/beatles/while_my_guitar_gently_weeps_btab.html ]
1----------------------------|
2----------------------------|
3-------------------5--------|
4-5--3--2--1--5--3-----0-----|

Chorus

1----------------------------|
2----------------------------|
3----4-----4--2--2-----------|
4-5-----2-----------0--0-----|


thats all
Comments