Beatles - What You're Doing Chords & Tabs

 

What You're Doing Chords & Tabs

Beatles Chords & Tabs

Version: 1 Type: Tab 0 ratings
1 star 2 stars 3 stars 4 stars 5 stars
comments

What You're Doing Tab

   
#----------------------------------PLEASE NOTE---------------------------------#
#This file is the author's own work and represents their interpretation of the #
#song. You may only use this file for private study, scholarship, or research. #
#------------------------------------------------------------------------------#


TAB: What You're Doing 
MUSIC BY: The Beatles (From the Beatles for Sale album)  
TABBED BY: The Beatles Central Team (jpgr_beatles@yahoo.com) 
       
        
Intro:  
 
(The following riff will be called Riff 1.  It should be played  
throughout the song whenever the progression "D-G" is present.) 
 
   D                                G 
E|---------------------------------|-------------------------------- 
B|---------------------------------|-------------------------------- 
G|-----------------4---2-----------|-------------------------------- 
D|-0-----------4-----------4---2---|---------2---0---2---4------0--- 
A|---------------------------------|-------------------------------- 
E|---------------------------------|-------------------------------- 
   ^       ^       ^       ^         ^       ^       ^       ^     
 
(Repeat Riff 1) 
       
        
Intro:  
 
(The following riff will be called Riff 1.  It should be played  
throughout the song whenever the progression "D-G" is present.) 
 
   D                                G 
E|---------------------------------|-------------------------------- 
B|---------------------------------|-------------------------------- 
G|-----------------4---2-----------|-------------------------------- 
D|-0-----------4-----------4---2---|---------2---0---2---4------0--- 
A|---------------------------------|-------------------------------- 
E|---------------------------------|-------------------------------- 
   ^       ^       ^       ^         ^       ^       ^       ^     
 
(Repeat Riff 1) 

[ Tab from: http://www.guitartabs.cc/tabs/b/beatles/what_youre_doing_tab.html ]
Solo: 
 
   D                                 G7       
E|-5-----------------------5-------|-9-------7---------------------- 
B|-7-----------------------7-------|-8-------6---------------------- 
G|---------------------------------|-------------------------------- 
D|---------------------------------|-------------------------------- 
A|---------------------------------|-------------------------------- 
E|---------------------------------|-------------------------------- 
   ^       ^       ^       ^         ^       ^       ^       ^     
   D                                 G7       
E|-5---------------------------5---|-9---9---7---7------------------ 
B|-7---------------------------7---|-8---8---6---6------------------ 
G|---------------------------------|-------------------------------- 
D|---------------------------------|-------------------------------- 
A|---------------------------------|-------------------------------- 
E|---------------------------------|-------------------------------- 
   ^       ^       ^       ^         ^       ^       ^       ^     
   G7                                D      
E|-2-------------------------------|-------------------------------- 
B|-----3-------------------3-------|-------------------------------- 
G|-------------4-------------------|-----4-------------------4------ 
D|---------------------------------|-------------5------------------ 
A|---------------------------------|-5------------------------------ 
E|---------------------------------|-------------------------------- 
   ^       ^       ^       ^         ^       ^       ^       ^   
   D                                 G7       
E|---------------------------------|-------------------------------- 
B|---------------------------------|-------------------------------- 
G|-4-------------------------------|-2-------------------2---------- 
D|-----5---------------------------|-4-----------------------4------ 
A|-------------5---------------5---|-------------------------------- 
E|---------------------------------|-------------------------------- 
   ^       ^       ^       ^         ^       ^       ^       ^    
  

 
Comments