Beatles - What Goes On Chords & Tabs

 

What Goes On Chords & Tabs

Beatles Chords & Tabs

Version: 1 Type: Tab 0 ratings
1 star 2 stars 3 stars 4 stars 5 stars
comments

What Goes On Tab

   
----------------------------------PLEASE NOTE---------------------------------#
#This file is the author's own work and represents their interpretation of the #
#song. You may only use this file for private study, scholarship, or research. #
#------------------------------------------------------------------------------#

-What Goes On?-   
 
by Lennon/McCartney/Ringo 
from Rubber Soul 
 
Intro: 
                               E7           B7 
E|-----------------1---2---3--|-----4----------------------| 
B|----------------------------|----------------4------4----| 
G|-----------------2---2---3--|-4--------------------------| 
D|----------------------------|-------------4------4-------| 
A|----------------------------|----------------------------| 
E|----------------------------|----------------------------| 
  E7 
E|-----0----------0-----------| 
B|----------0-----------0-----| 
G|-2--------------------------| 
D|----------------------------| 
A|----------------------------| 
E|----------------------------| 


Solo: 
  E7                            
E|---------7------7---7-------|------12-------12-----12-----| 
B|----------------------------|----------12-----12-----12---| 
G|------------------------7---|-----------------------------| 
D|----------------------------|-------------------14-----14-| 
A|-4/7-7----------------------|-----------------------------| 
E|----------------------------|-----------------------------| 
  A7                           E7 
[ Tab from: http://www.guitartabs.cc/tabs/b/beatles/what_goes_on_tab.html ]
E|------9------9------9-------|----0--------0---------------| 
B|--------10-------10--10-----|-------3-------3--0----------| 
G|----------9----9------------|---------0h1---------1-------| 
D|----------------------------|------------------------4/6--| 
A|----------------------------|-----------------------------| 
E|----------------------------|-0---------------------------| 
                  
E|------------0------0------0-|----0-------0----------------| 
B|--0---0-------0-------0-----|--------3--------3----3---0--| 
G|----------------6-------6---|------------------------1----| 
D|--------6-------------------|-----------------------------| 
A|----------------------------|-----------------------------| 
E|----------------------------|-----------------------------| 
 
  A7                           B7 
E|-----0-----0------0------0--|---2------2-----------0------| 
B|-------2------2------2------|--------------0-----0----0-0-| 
G|---------0------0------0----|------2---------3------------| 
D|-2--------------------------|-----------------------------| 
A|----------------------------|-2---------------------------| 
E|----------------------------|-----------------------------| 
  E7 
E|-----0-------0--------------| 
B|-----------3--------3-------| 
G|----------------------------| 
D|----------------------------| 
A|----------------------------| 
E|----------------------------| 
 
 
============================================================================== 
I                    Transcribed by the Beatles Central Team                 I 
I                          jpgr_beatles@yahoo.com                            I 
I   Visit Beatles Central for more great Beatles tabs and midis(220+ each).  I 
I   Every album covered! http://members.tripod.com/jpgr_beatles/index.html   I 
============================================================================== 
 

Comments