Beatles - We Can Work It Out Chords & Tabs

 

We Can Work It Out Chords & Tabs

Beatles Chords & Tabs

Version: 1 Type: Bass Tab 0 ratings
1 star 2 stars 3 stars 4 stars 5 stars
comments

We Can Work It Out Bass Tab

Title       : We Can Work It Out
Artist      : The Beatles
Album       : Past Masters Volume 2
Tabbed By   : Ken Robertson
-------------------------------------------------------------------------

G-----------------------------------|-----------------------------------|
D-----------------------------------|-----------------------------------|
A---5---5-5---5---5-5---3-3---3-5-5-|---5---5-5-----5---5-5---3---3-5-5-|
E-----------------------------------|-5-----------5---------------------|

G---------------------------------|
D---------------------------------|
A-----------5-5-5-----------------|
E---3-3-3-----------3-3-3---5-5-5-|

G-----------------------------------|-----------------------------------|
D-----------------------------------|-----------------------------------|
A---5---5-5-----5---5-5---3-3---5-5-|---5---5-5-----5---5-5---3-3---5-5-|
E-------------5---------------------|-5-----------5---------------------|

G-----------------------------|
D-----------------------------|
A-------------5-5-------------|
E---3-3-3-3---------3-3---5-5-|

G---------------------------------------------------|
D---------------------------------------------------|
A---2-2---------2---2-----------5-----------2-------|
E---------2-2---------5-5---3-3-----3-2-2-----5-3-2-|
[ Tab from: http://www.guitartabs.cc/tabs/b/beatles/we_can_work_it_out_btab.html ]
G---------------------------------------------------|
D---------------------------------------------------|
A---2-2-----0-1-2-2---------5-5-------4-4---2-------|
E-------2-2---------5-5-3-3-----3-2-2---------5-3-2-|

G-------------------------------|-------------------------------|
D-------------------------------|-------------------------------|
A---5-5-----3-5-5-----5-3-3-3-5-|---5-5-----3-5-5-----5-3-3-5-5-|
E-------5-5-------5-5-----------|-5-----5-5-------5-5-----------|

G-------------------------|
D-------------------------|
A---------5-5-------------|
E---3-3---------3-3---5-5-|

G---------------------------------------------------|
D---------------------------------------------------|
A---2-2---------2---2-----------5-----------2-------|
E---------2-2---------5-5---3-3-----3-2-2-----5-3-2-|

G---------------------------------------------------|
D---------------------------------------------------|
A---2-2-----0-1-2-2---------5-5-------4-4---2-------|
E-------2-2---------5-5-3-3-----3-2-2---------5-3-2-|

G-------------------------------|-------------------------------|
D-------------------------------|-------------------------------|
A---5-5-----3-5-5-----5-3-3-3-5-|---5-5-----3-5-5-----5-3-3-5-5-|
E-------5-5-------5-5-----------|-5-----5-5-------5-5-----------|

G-------------------------|-----------|
D-------------------------|-----------|
A---------5-5-------------|-3---3---3-|
E---3-3---------3-3---5-5-|-----------|
Comments