Beatles - Twist And Shout Chords & Tabs

 

Twist And Shout Chords & Tabs

Beatles Chords & Tabs

Version: 4 Type: Tab 3 ratings
1 star 2 stars 3 stars 4 stars 5 stars
comments

Twist And Shout Tab

   
I have analysed all of the other versions of twist and shout on
this site and made some changes. This is how I played it when I]
was performing with my school band. I have tried playing the others
and it does not sound as close to the real thing as my version does.

Intro which is played once

                       D      G    A                  
e---------------------------------------------------
B----------------3-3-3-3-3-3-3-2-2-2-2-2-2----------
G----------------2-2-2-0-0-0-0-2-2-2-2-2-2----------
D-----------0----0-0-0-0-0-0-0-2-2-2-2-2-2----------
A--0-2-4-----------------0-0-0----------------------
E------------------------3-3-3----------------------

During the verse it is prety much the same as the intro execpt leaving
out the begining part, (The 0-2-4). Playing the D G & A chords intime
with the music                                                                 
		
Bridge thing

[ Tab from: http://www.guitartabs.cc/tabs/b/beatles/twist_and_shout_tab_ver_4.html ]
     Ah             Ah(High)       Ah(Higher)     Ah(EvenHigher)
e----------------------------------------------------3-3-3
B-----2--2-----2-----2--2--2--2-----2-----2--2-2-----2-2-2
G-----2--2-----2-----2--2--2--2-----2-----2--2-2-----2-2-2
D-----2--2--2--2--2--2--2--2--2--2--2--2--2--2-2--2--2-2-0
A-----0--0-----0-----0--0--0--0-----0-----0--0-0-----0-0-0
E---------------------------------------------------------

Immediatly followed by

                       D      G    A                  
e----------------------------------------------------
B-----------------3-3-3-3-3-3-3-2-2-2-2-2-2----------
G-----------------2-2-2-0-0-0-0-2-2-2-2-2-2----------
D------------0----0-0-0-0-0-0-0-2-2-2-2-2-2----------
A---0-2-4-----------------0-0-0----------------------
E-------------------------3-3-3----------------------


Then Solo         
                                                         
e---------------------------------
B-----------0--3--2--------0------
G-----2--2--0--4--2--2--2---------
D-----0--0-----------2--2-----4---
A---------------------------------
E---------------------------------


Then to end the song after the ahhhh's immediatly 

e------------------------------------
B------------------------------------
G------------------------------------
D--5-6-7-8-9-10-11-12---12~~~~~------
A--5-6-7-8-9-10-11-12---12~~~~~------
E--3-4-5-6-7-8--9--10---10~~~~~------
Comments