Beatles - Twist And Shout Chords & Tabs

 

Twist And Shout Chords & Tabs

Beatles Chords & Tabs

Version: 14 Type: Tab 0 ratings
1 star 2 stars 3 stars 4 stars 5 stars
comments

Twist And Shout Tab

   
-------------------------------------------------------------------------------
                    TWIST AND SHOUT - THE BEATLES
-------------------------------------------------------------------------------
Tabbed by:Preston Webber


Tuning:Standard

  Intro/verse:(0:00/1:35)
  Elec. Gtr. (clean tone)       (Repeat until Gtr. solo) 

         D     G    A  A5        
e|---------------------------------------------------------------------------|
B|----------3----3--7--------------------------------------------------------|
G|----------2----4--6--------------------------------------------------------|
D|----------4----5--5--7-7-7-7-----------------------------------------------|
A|---2-4-5-------------7-7-7-7-----------------------------------------------|
E|-5-----------3-------5-5-5-5-----------------------------------------------|

  Gtr. Solo: (1:09)

   D    G       A          G  D          G     A    G  D           G         
e|-------------(2)-----------------------------------------------------------|
B|-----------3--2---2p(0)--4----------------4--2----------------------4------|
G|-2---2--4--4--2---2------5--2----------4--3--2---2--4--2----------4--3------|
D|-4---4--5-------------------4---4---4--5---------4--5--4---4---4--5---------|
A|-5---5--------------------------5---5----------------------5---5------------|
E|---------------------------------------------------------------------------|

   A        G  D         G      A          G  D
e|-2-------------------------------------------------------------------------|
B|-2---2p0--4--2------------3---2---2p(0)------------------------------------|
G|-2---2p0--5--4---------4--4---2---2p0----4--2------------------------------|
D|----------------4---4--5-----------------5--4------------------------------|
A|----------------5---5------------------------------------------------------|
E|---------------------------------------------------------------------------|
[ Tab from: http://www.guitartabs.cc/tabs/b/beatles/twist_and_shout_tab_ver_14.html ]
  Chorous: (1:25)
   
   A5    A      A5    A     A6 A5       A     A6 A5  
e|--------------------------2-----------------2------------------------------|
B|-------2------------2-----2-----------2-----2------------------------------|
G|-2-----2------2-----2-----2-----2-----2-----2-----2------2---2---2--2--2---|
D|-2-----2------2--2--2-----2--2--2--2--2-----2--2--2--2---2---2---2--2--2---|
A|-0--0---------0-----0--0-----0--0--0--0--0-----0--0--0---0---0---0--0--0---|
E|----------4b---------------------------------------------------------------|

e|---------------------------------------------------------------------------|
B|---------------------------------------------------------------------------|
G|-2---2---2---2--2--2--2--2--2--2--2----------------------------------------|
D|-2---2---2---2--2--2--2--2--2--2--2----------------------------------------|
A|-0---0---0---0--0--0--0--0--0--0--0----------------------------------------|
E|---------------------------------------------------------------------------|

  Outro:(2:18)

   A5
e|---------------------------------------------------------------------------|
B|---------------------------------------------------------------------------|
G|---------------------------------------------------------------------------|
D|-7---7--7---7--7--7----7---7--7---7--7--7----7---7--7---7--7--7------------|
A|-7---7--7---7--7--7----7---7--7---7--7--7----7---7--7---7--7--7------------|
E|-5---5--5---5--5--5----5---5--5---5--5--5----5---5--5---5--5--5------------|

                  D9
e|----------------5----------------------------------------------------------|
B|----------------5----------------------------------------------------------|
G|----------------5----------------------------------------------------------|
D|----------------4----------------------------------------------------------|
A|-0-1-2-3-4-5----5----------------------------------------------------------|
E|---------------------------------------------------------------------------|

  Chords Used:    

                D      G          A          A5      A6     D9    
               -2-    -3-      -5-/---    ---/---   -2-    -5-   
               -3-    -3-      -5-/-2-    ---/---   -2-    -5-  
               -2-    -4-      -6-/-2-    ---/-2-   -2-    -5-   
               -4-    -5-      -7-/-2-    -7-/-2-   -2-    -4-   
               -5-    -5-      -7-/-0-    -7-/-0-   -0-    -5-   
               ---    -3-      -5-/---    -5-/---   ---    ---   



************************************

| /   slide up
| \   slide down
| h   hammer-on
| p   pull-off
| ~   vibrato
| +   harmonic
| x   Mute note
| b   Half-bend
| b   Full-bend
| pb  Pre-bend
| br  Bend release
| pbr Pre-bend release
| brb Bend release bend

************************************
Comments