Beatles - Twist And Shout Chords & Tabs

 

Twist And Shout Chords & Tabs

Beatles Chords & Tabs

Version: 4 Type: Bass Tab 0 ratings
1 star 2 stars 3 stars 4 stars 5 stars
comments

Twist And Shout Bass Tab

   
"Twist and Shout"
By The Beatles
From The Album "Please Please Me"
Tuning: Standard E A D G
Tabbed by Jesse Pollack

The bass comes in with the vocals 

G------------------------
D-----4-7-55-7777-55-44--
A----5------------------- (X3)
E------------------------

G-------------------------------------------
D-----4-7-55-7777---------4-7-55-7777-55-44-
A----5-------------0-2-4-5------------------ (X1)
E-------------------------------------------

G------------------------
D-----4-7-55-7777-55-44--
A----5------------------- (X2)
E------------------------

G-------------------------------------------
D-----4-7-55-7777---------4-7-55-7777-55-44-
A----5-------------0-2-4-5------------------ (X1)
E-------------------------------------------


G------------------------
D-----4-7-55-7777-55-44--
A----5------------------- (X2)
E------------------------
[ Tab from: http://www.guitartabs.cc/tabs/b/beatles/twist_and_shout_btab_ver_4.html ]
G-------------------------------------------
D-----4-7-55-7777---------4-7-55-7777-55-44-
A----5-------------0-2-4-5------------------ (X1)
E-------------------------------------------

G------------------------
D-----4-7-55-7777-55-44--
A----5------------------- (X2)
E------------------------

G-------------------------------------------
D-----4-7-55-7777---------4-7-55-7777-55-44-
A----5-------------0-2-4-5------------------ (X1)
E-------------------------------------------

Solo:

G------------------------
D-----4-7-55-7777-55-44--
A-5555------------------- (X3)
E------------------------

G-------------------------
D-----4-7-55-7777-5/7-5/7-
A-5555-------------------- (X1)
E-------------------------

"Ahhhhhhhh....."

G--------------------------------
D--77777777777777777777777777777-
A--------------------------------
E--------------------------------


"Shake It Shake It..."

G--------------------------------
D-----77777---------4-7-55-77777-
A------------0-2-4-5------------- (X3)
E--------------------------------

Outro:

G--------------------------------
D--------------------------------
A-------------------5------------
E-4-5-6-7-8-9-10-11--------------

Listen to the song for timing.

Have fun!
Comments