Beatles - To Know Her Is To Love Her Chords & Tabs

 

To Know Her Is To Love Her Chords & Tabs

Beatles Chords & Tabs

Version: 2 Type: Bass Tab 0 ratings
1 star 2 stars 3 stars 4 stars 5 stars
comments

To Know Her Is To Love Her Bass Tab

To Know Her Is To Love Her
The Beatles
Written by Phil Spector

Wonderful love song.

6/8 time

Intro:
G/4---6---4-- -----------|
D|------------7---6---4--|
A|-----------------------|
E|-----------------------|
                      To

Verse:
G|----------- -----------|----------- -----------|----------- -----------|
D|-----------------------|9----------------------|9-----------9----------|
A|7----------------------|-----------------------|-----------------------|
E|-----------------------|-----------------------|-----------------------|
  know,       know,       know    her     is  to  love,       love,
                                      do- do- do- do

G|----------- -----------|----------- -----------|----------- -----------|
D|------------9----------|-----------------------|6-------------------6--|
A|9----------------------|-----------------------|-----------------------|
E|--------------------7--|9----------------------|-----------------------|
  love    her,                        Just    to  see her smile
                          oooooooooooooooooooooooooooooooooo- do- do- do-

G|----------- -----------|----------- -----------|----------- -----------|
D|7-----------7----------|-----------------------|--------------------6--|
A|-----------------------|-----------------------|7----------------------|
E|-----------------------|9-------------------7--|-----------------------|
  makes       my          life worth- Yes just to know,       know
                                   while
  dooooooooooooooooooooooooooooooooooo
G|----------- -----------|----------- -----------|----------- -----------|
D|9-------------------9--|9-----------7----------|6----------------------|
A|-----------------------|-----------------------|------------9----------|
E|-----------------------|-----------------------|-----------------------|
  know    her     is  to  love,       love,       love    her,    And I


G|----------- -----------|----------- -----------|----------- -----------|
D|-----------------------|7-----------7----------|-----------------------|
A|7-----------7----------|-----------------------|7-----------7----------|
E|-----------------------|-----------------------|-----------------------|
  do,             and I   do,             and I   do
      and I   do, and I,      and I   do, and I,      and I   do, and I

G|4---6---4-- -----------|
D|------------7---6---4--|
A|-----------------------|
E|-----------------------|
  da- da- da- da- da- da

Verse:
G|----------- -----------|----------- -----------|----------- -----------|
D|-----------------------|9----------------------|9-----------9-------9--|
A|7----------------------|-----------------------|-----------------------|
E|-----------------------|-----------------------|-----------------------|
  I'll        be          good to her,            I'll        make
                                      do- do- do- do

G|----------- -----------|----------- -----------|----------- -----------|
D|------------9----------|-----------------------|6-------------------6--|
A|9----------------------|-----------------------|-----------------------|
E|--------------------7--|9----------------------|-----------------------|
  love to her,            Everyone  says there'll come a  day         when
                          oooooooooooooooooooooooooooooooooo- do- do- do-

G|----------- -----------|----------- -----------|----------- -----------|
D|7-----------7----------|-----------------------|--------------------6--|
A|-----------------------|-----------------------|7----------------------|
E|-----------------------|9-------------------7--|-----------------------|
  I'll        walk along- side of her Yes just to know,       know
  dooooooooooooooooooooooooooooooooooo

G|----------- -----------|----------- -----------|----------- -----------|
D|9----------------------|9-----------7----------|6----------------------|
A|-----------------------|-----------------------|------------9----------|
E|-----------------------|-----------------------|--------------------7--|
  know    her     is  to  love,       love,       love    her,    And I


G|----------- -----------|----------- -----------|----------- -----------|
D|-----------------------|7-----------7----------|-----------------------|
A|7-----------7----------|-----------------------|7-----------7----------|
E|-----------------------|-----------------------|-----------------------|
  do,             and I   do,             and I   do
      and I   do, and I,      and I   do, and I,      and I   do, and I,

G|----------- -----------|
D|-----------------------|
A|7---7---7---7---7---7--|
E|-----------------------|
      and I   do, and I

Bridge:
G|----------- -----------|----------- -----------|----------- -----------|
D|5----------------------|-----------------------|-----------------------|
A|------------7----------|5----------------------|5-----------5----------|
E|-----------------------|------------7-------5--|-----------------------|
  Why                                 can't   she see,
  aaaaaaaaaaaaaaaaaaaaaaaaaaaaaaaaaaaa                da- da      da- da

G|----------- -----------|----------- -----------|----------- -----------|
D|7----------------------|-----------------------|5----------------------|
A|------------5----------|3-----------3----------|------------3-------3--|
E|-----------------------|-----------------------|-----------------------|
                      how blind                                   can she
      da- da      da- da      da- da      da- da      da- da      da- da

G|4---------- 4----------|----------- -----------|----------- -----------|
D|-----------------------|4----------------------|5-----------5----------|
A|-----------------------|-----------------------|-----------------------|
E|-----------------------|------------7----------|-----------------------|
  be?                                             Some
      da- da      da- da      da- da      da- da      da- da      da- da

G|----------- -----------|5---------- 5----------|4---------- 4----------|
D|-----------------------|-----------------------|-----------------------|
A|7-----------7----------|-----------------------|-----------------------|
E|-----------------------|-----------------------|-----------------------|
  day         she'll      see                                         that
      da- da      da- da      da- da      da- da      da- da      da- da

G|----------- -----------|----------- -----------|4---4---4-- 4---4---4--|
D|4-----------4----------|4-----------4----------|-----------------------|
A|-----------------------|-----------------------|-----------------------|
E|-----------------------|-----------------------|-----------------------|
  she                 was meant   just    for     me,                 oh,
      da- da      da- da      da- da      da- da      da- da      da- da
[ Tab from: http://www.guitartabs.cc/tabs/b/beatles/to_know_her_is_to_love_her_btab_ver_2.html ]
G|4---6---4-- -----------|
D|------------7---6---4--|
A|-----------------------|
E|-----------------------|
  oh,         yeah!   To
  da- da- da- da- da- da
Verse:
G|----------- -----------|----------- -----------|----------- -----------|
D|-----------------------|9----------------------|9-----------9----------|
A|7----------------------|------------7---6------|-----------------------|
E|-----------------------|--------------------9--|-----------------------|
  know,       know,       know    her     is  to  love,       love,
                                      do- do- do- do

G|----------- -----------|----------- -----------|----------- -----------|
D|------------9----------|-----------------------|6-------------------6--|
A|9----------------------|-----------------------|-----------------------|
E|--------------------7--|9-----------9----------|-----------------------|
  love    her,            Just        to          see her smile
                          oooooooooooooooooooooooooooooooooo- do- do- do-

G|----------- -----------|----------- -----------|----------- -----------|
D|7-----------7----------|-----------------------|--------------------6--|
A|-----------------------|-----------------------|7-----------7----------|
E|-----------------------|9-----------9-------7--|-----------------------|
  makes       my          life worth- Yes just to know,       know
                                   while
  dooooooooooooooooooooooooooooooooooo
G|----------- -----------|----------- -----------|----------- -----------|
D|9----------------------|9-----------9----------|------------9----------|
A|------------7---6------|-----------------------|9----------------------|
E|--------------------9--|-----------------------|-----------------------|
  know    her     is  to  love,       love,       love    her,    And I


G|----------- -----------|----------- -----------|----------- -----------|
D|-----------------------|7-----------7----------|-----------------------|
A|7-----------7----------|-----------------------|7---7---7---7---7---7--|
E|-----------------------|--------------------7--|-----------------------|
  do,             and I   do,             and I   do
      and I   do, and I,      and I   do, and I,      and I   do, and I,

G|----------- -----------|
D|-----------------------|
A|7---7---7---7---7---7--|
E|-----------------------|
      and I   do, and I

Bridge:
G|----------- -----------|----------- -----------|----------- -----------|
D|5----------------------|-----------------------|-----------------------|
A|-----------------------|5----------------------|5-----------5----------|
E|------------7----------|------------7----------|-----------------------|
  Why                                 can't   she see,
  aaaaaaaaaaaaaaaaaaaaaaaaaaaaaaaaaaaa                da- da      da- da

G|----------- -----------|----------- -----------|----------- -----------|
D|7----------------------|-----------------------|5----------------------|
A|------------5----------|3-----------3----------|------------3----------|
E|-----------------------|-----------------------|-----------------------|
                                      how                     blind can she
      da- da      da- da      da- da      da- da      da- da      da- da

G|----------- -----------|----------- -----------|----------- -----------|
D|-----------------------|4----------------------|5-----------5----------|
A|2-----------2----------|------------2----------|-----------------------|
E|-----------------------|-----------------------|-----------------------|
  be?                                             Some
      da- da      da- da      da- da      da- da      da- da      da- da

G|----------- -----------|5---------- 5----------|4---------- 4----------|
D|-----------------------|-----------------------|-----------------------|
A|7-----------7----------|-----------------------|-----------------------|
E|-----------------------|-----------------------|-----------------------|
  day         she'll      see                                         that
      da- da      da- da      da- da      da- da      da- da      da- da

G|----------- -----------|----------- -----------|4---4---4-- 4---4---4--|
D|4----------------------|4----------------------|-----------------------|
A|-----------------------|-----------------------|-----------------------|
E|-----------------------|-----------------------|-----------------------|
  she                 was meant   just    for     me,                 oh,
      da- da      da- da      da- da      da- da      da- da      da- da

G|4---6---4-- -----------|
D|------------7---6---4--|
A|-----------------------|
E|-----------------------|
  oh,         yeah!   To
  da- da- da- da- da- da

Verse:
G|----------- -----------|----------- -----------|----------- -----------|
D|-----------------------|9----------------------|9-----------9----------|
A|7----------------------|------------7---6------|-----------------------|
E|-----------------------|--------------------9--|-----------------------|
  know,       know,       know    her     is  to  love,       love,
                                      do- do- do- do

G|----------- -----------|----------- -----------|----------- -----------|
D|------------9----------|-----------------------|6-------------------6--|
A|9----------------------|-----------------------|-----------------------|
E|--------------------7--|9-----------9----------|------------9----------|
  love    her,            Just        to          see her smile
                          oooooooooooooooooooooooooooooooooo- do- do- do-

G|----------- -----------|----------- -----------|----------- -----------|
D|7-----------7----------|-----------------------|--------------------6--|
A|-----------------------|7----------------------|7-----------7----------|
E|-----------------------|------------9-------7--|-----------------------|
  makes       my          life worth- Yes just to know,       know
                                   while
  dooooooooooooooooooooooooooooooooooo
G|----------- -----------|----------- -----------|----------- -----------|
D|9----------------------|9-----------7----------|6----------------------|
A|------------7----------|-----------------------|------------9----------|
E|--------------------9--|-----------------------|--------------------7--|
  know    her     is  to  love,       love,       love    her,    And I


G|----------- -----------|----------- -----------|----------- -----------|
D|-----------------------|7-----------7----------|-----------------------|
A|7-----------7----------|-----------------------|7----------------------|
E|-----------------------|-----------------------|-----------------------|
  do,             and I   do,             and I   do
      and I   do, and I,      and I   do, and I,  do

Please e-mail me for any corrections, or write a comment.
Comments