Beatles - Till There Was You Chords & Tabs

 

Beatles Chords & Tabs

Version: 4 Type: Tab 0 ratings
1 star 2 stars 3 stars 4 stars 5 stars
comments

Till There Was You Tab

   
    --------------------------------------------------------------

    THE BEATLES - TILL THERE WAS YOU. From WITH THE BEATLES album. 
                  Released on November, 22nd, 1963. (Cover version 
                  from Meredith Wilson's song included in a 1957's 
                  Broadway Show, named "The Music Man".)
   
    --------------------------------------------------------------

    Tabbed by:PJVillanueva



                             

    There were bells on a hill
    But I never heard them ringing
    No I never heard them at all
    Till there was you.

    There were birds in the sky
    But I never saw them winging
    No I never saw them at all
    Till there was you. 

    Then there was music and wonderful roses
    They   tell me in sweet fragrant meadows of dawn and dew
 
    There was love all around
    But I never heard it singing
    No I never heard it at all
    Till there was you.

              SOLO 

    Then there was music and wonderful roses
    They tell me in sweet fragrant meadows of dawn and dew

    There was love all around
    But I never heard it singing
    No I never heard it at all
    Till there was you.
  
    Till there was you.






    INTRO

    F               F#dim           Gm              C9
  e|1-----1 1------ 2------ 2------|3------ 3------ 3---3-- 3------|
  B|1-----1-1-------1-------1------|3-------3-------3---3---3------|
  G|2-----2-2-------2-------2------|3-------3-------3---3---3------|
  D|3-----3-3-------1-------1------|5-------5-------2---2---2------|
  A|3-----3-3----------------------|5-------5-------3---3---3------|
  E|1-----1-1----------------------|3-------3----------------------|

  e|------- ------- ------- -------|------- ------- ------- -------|
  B|-----1-------------------------|3------------------------------|
  G|2---------2--------------------|-----3-------------------------|
  D|----------------4--------------|----------5--------------------|
  A|-------------------------------|----------------3--------------|
  E|-------------------------------|-------------------------------|



   
  e|1------ 1------ 2---2-- 2------|3-----3 3------ 3------ -------|
  B|1-------1-------1---1---1------|3-----3-3-------3--------------|
  G|2-------2-------2---2---2------|3-----3-3-------3--------------|
  D|3-------3-------1---1---1------|5-----5-5-------2--------------|
  A|3-------3----------------------|5-----5-5-------3--------------|
  E|1-------1----------------------|3-----3-3----------------------|
                                                        There   were
  e|------- ------- ------- -------|------- ------- ------- -------|
  B|-----1-------------------------|3------------------------------|
  G|2---------2--------------------|-----3-------------------------|
  D|----------------4--------------|----------5--------------------|
  A|-------------------------------|----------------3--------------|
  E|-------------------------------|-------------------------------|



    00:08
    F                               F#dim
  e|1-----1 1---1-- ----1-- 1------|2-----2 2------ 2------ 2------|
  B|1-----1-1---1-------1---1------|1-----1-1-------1-------1------|
  G|2-----2-2---2-------2---2------|2-----2-2-------2-------2------|
  D|3-----3-3---3-------3---3------|1-----1-1-------1-------1------|
  A|3-----3-3---3-------3---3------|-------------------------------|
  E|1-----1-1---1-------1---1------|-------------------------------|
    bells                   on a                        but     I
                                hill
  e|------- ------- ------- -------|------- ------- ------- -------|
  B|----1--------------------------|----1--------------------------|
  G|2-----------2------------------|2-----------2------------------|
  D|----------------3--------------|----------------4--------------|
  A|-------------------------------|-------------------------------|
  E|-------------------------------|-------------------------------|



    Gm                              Bbm
  e|3-----3 3---3-- 3------ 3------|6-----6 6---6-- 6---6-- 6------|
  B|3-----3-3---3---3-------3------|6-----6-6---6---6---6---6------|
  G|3-----3-3---3---3-------3------|6-----6-6---6---6---6---6------|
  D|5-----5-5---5---5-------5------|8-----8-8---8---8---8---8------|
  A|5-----5-5---5---5-------5------|8-----8-8---8---8---8---8------|
  E|3-----3-3---3---3-------3------|6-----6-6---6---6---6---6------|
    never               heard       ringing             No      I
                                them
  e|------- ------- ------- -------|------- ------- ------- -------|
  B|-------------------------------|-------------------------------|
  G|------------3-----------3------|3-----------3-----------3------|
  D|----------------5--------------|----------------3--------------|
  A|-------------------------------|-------------------------------|
  E|-------------------------------|-------------------------------|



    F               Am         Abm  Gm              C9
  e|1-----1 1---1-/ 5---5-- ----4--|3-----3 3------ 3------ 3------|
  B|1-----1-1---1-/-5---5-------4--|3-----3-3-------3-------3------|
  G|2-----2-2---2-/-5---5-------4--|3-----3-3-------3-------3------|
  D|3-----3-3---3-/-7---7-------6--|5-----5-5-------2-------2------|
  A|3-----3-3---3-/-7---7-------6--|5-----5-5-------3-------3------|
  E|1-----1-1---1-/-5---5-------4--|3-----3-3----------------------|
    never       heard       them all                        till
                               at
  e|------- ------- ------- -------|------- ------- ------- -------|
  B|-------------------------------|----------------3--------------|
  G|--------2----------------------|----------------3--------------|
  D|3-------------------5-------4--|3-------3-------2--------------|
  A|3-----------3-/-7---7-------6--|5-------5-------3--------------|
  E|1-------------------5-------4--|3-------3----------------------|



    F                               Gm              C9
  e|1------ 1---1-- ----1-- 1------|3-----3 3------ 3---3-- 3------|
  B|1-------1---1-------1---1------|3-----3-3-------3---3---3------|
  G|2-------2---2-------2---2------|3-----3-3-------3---3---3------|
  D|3-------3---3-------3---3------|5-----5-5-------2---2---2------|
  A|3-------3---3-------3---3------|5-----5-5-------3---3---3------|
  E|1-------1---1-------1---1------|3-----3-3----------------------|
    there   was you.                                        There
                                                                were
  e|------- ------- ------- -------|------- ------- ------- -------|
  B|-------------------------------|-------------------------------|
  G|2-----------2-------2---2------|----3--------------------------|
  D|3---------------------------3-/|5-----------5------------------|
  A|3------------------------------|----------------3-------3------|
  E|1------------------------------|-------------------------------|


 
    00:23

  e|1------ 1---1-- ----1-- 1------|2------ 2---x-- 5------ 5------| 
  B|1-------1---1-------1---1------|1-------1---x---4-------4------|
  G|2-------2---2-------2---2------|2-------2---x---5-------5------|
  D|3-------3---3-------3---3------|1-------1---x---4-------4------|
  A|3-------3---3-------3---3------|-------------------------------|
  E|1-------1---1-------1---1------|-------------------------------|
    birds               in  the sky                             but
                                                                  I
  e|------- ------- ------- -------|------- ------- ------- -------|
  B|----1--------------------------|----1--------------------------|
  G|2-----------2------------------|------------2------------------|
  D|----------------3--------------|----------------4--------------|
  A|-------------------------------|-------------------------------|
  E|-------------------------------|-------------------------------|




  e|3-----3 3---3-- 3------ 3------|6-----6 6---6-- ----6-- 6------|
  B|3-----3-3---3---3-------3------|6-----6-6---6-------6---6------|
  G|3-----3-3---3---3-------3------|6-----6-6---6-------6---6------|
  D|5-----5-5---5---5-------5------|8-----8-8---8-------8---8------|
  A|5-----5-5---5---5-------5------|8-----8-8---8-------8---8------|
  E|3-----3-3---3---3-------3------|6-----6-6---6-------6---6------|
    never               saw         winging                     No 
                                them
  e|------- ------- ------- -------|------- ------- ------- -------|
  B|3------------------------------|2------------------------------|
  G|------------3------------------|------------3------------------|
  D|----------------5--------------|------------------------3------|
  A|-------------------------------|-------------------------------|
  E|-------------------------------|-------------------------------|




  e|1------ 1---1-/ 5---5-- ----4--|3------ 3------ 3---3-- 3------|
  B|1-------1---1-/-5---5-------4--|3-------3-------3---3---3------|
  G|2-------2---2-/-5---5-------4--|3-------3-------3---3---3------|
  D|3-------3---3-/-7---7-------6--|5-------5-------2---2---2------|
  A|3-------3---3-/-7---7-------6--|5-------5-------3---3---3------|
  E|1-------1---1-/-5---5-------4--|3-------3----------------------|
        I       never            at all                         till        
                    saw         them 
  e|------- ------- ------- -------|------- ------- ------- -------|
  B|-------------------------------|----------------3--------------|
  G|--------2----------------------|----------------3--------------|
  D|3-------------------5-------4--|3-------3-------2--------------|
  A|3-----------3-/-7---7-------6--|5-------5-------3--------------|
  E|1-------------------5-------4--|3-------3----------------------|


  
                                    F9
  e|1-----1 1---1-- ----1-- 1------|8------ ----8-- 8------ 8------|
  B|1-----1-1---1-------1---1------|8-----x-x---8---8-------8------|
  G|2-----2-2---2-------2---2------|8-----x-x---8---8-------8------|
  D|3-----3-3---3-------3---3------|7-----x-x---7---7-------7------|
  A|3-----3-3---3-------3---3------|8-----------8---8-------8------|
  E|1-----1-1---1-------1---1------|-------------------------------|
    there   was you.                                Then        was
                                                        there
  e|------- ------- ------- -------|------- ------- ------- -------|
  B|-------------------------------|------------------------1------|
  G|--------------------2----------|----------------2--------------|
  D|----------------------------3--|------------3------------------|
  A|-------------------------------|----3--------------------------|
  E|-------------------------------|-------------------------------|



    00:39
    Bb                              Bbm
  e|6------ ----6-- 6---6-- 6---6--|6-----6 6---6-- ----6-- 6------|
  B|6-------x---6---6---6---6---6--|6-----6-6---6-------6---6------|
  G|7-------x---7---7---7---7---7--|6-----6-6---6-------6---6------|
  D|8-------x---8---8---8---8---8--|8-----8-8---8-------8---8------|
  A|8-----------8---8---8---8---8--|8-----8-8---8-------8---8------|
  E|6-----------6---6---6---6---6--|6-----6-6---6-------6---6------|
        music                                   and     wondeful
  e|------- ------- ------- -------|------- ------- ------- -------|
  B|3-----------3-----------3------|2-----------2-----------2------|
  G|3-----------3-----------3------|3-----------3-----------3------|
  D|3-----------3-----------3------|3-----------3-----------3------|
  A|-------------------------------|-------------------------------|
  E|-------------------------------|-------------------------------|



    F                               D9
  e|1------ 1---1-- 1---1-- 1------|5------ ----5-- 5------ 5------|
  B|1-------1---1---1---1---1------|5-----------5---5-------5------|
  G|2-------2---2---2---2---2------|5-----------5---5-------5------|
  D|3-------3---3---3---3---3------|7-----------7---7-------7------|
  A|3-------3---3---3---3---3------|5-----------5---5-------5------|
  E|1-------1---1---1---1---1------|-------------------------------|
    roses                       they    tell    me              in 
  e|------- ------- ------- -------|------- ------- ------- -------|
  B|1-----------1-------1---1------|-------------------------------|
  G|2-----------2-------2---2------|-------------------------------|
  D|3-----------3-------3---3------|----------------4--------------|
  A|-------------------------------|------------5---5--------------|
  E|-------------------------------|----5-----------5--------------|


                                    
    Gm                              G7
  e|3------ 3---3-- ----3-- 3------|3-----3 3---3-- 3------ 3------|
  B|3-------3---3-------3---3------|6-----6-6---6---6-------6------|
  G|3-------3---3-------3---3------|4-----4-4---4---4-------4------|
  D|5-------5---5-------5---5------|3-----3-3---3---3-------3------|
  A|5-------5---5-------5---5------|5-----5-5---5---5-------5------|
  E|3-------3---3-------3---3------|3-----3-3---3---3-------3------|
    sweet               fragant     meadows                     of
  e|------- ------- ------- -------|------- ------- ------- 3------|
  B|3----3----3----------3----3----|------------3---3-------6------|
  G|3----3----3----------3----3----|------------4---4-------4------|
  D|5----5----5----------4----4----|------------5---5-------3------|
  A|5----5----5----------5----4----|------------5-----------5------|
  E|-------------------------------|------------------------3------|
    Gm                   D+5                    G           G7



    C               C9              C+5
  e|0-----0 0---0-- 3---3-- 3------|4------ ----4-- ----4-- 4------| 
  B|1-----1-1---1---3---3---3------|5-----------5-------5---5------|
  G|0-----0-0---0---3---3---3------|5-----------5-------5---5------|
  D|2-----2-2---2---2---2---2------|6-----------6-------6---6------|
  A|3-----3-3---3---3---3---3------|-------------------------------|
  E|-------------------------------|-------------------------------|
    dawn                        and     dew             There   was
  e|------- ------- ------- -------|4------ ----4-- ------- 4------|
  B|--------5-------3-------3------|5-----------5-----------5------|
  G|--------5-------3---5---3------|5-----------5-----------5------|
  D|--------5-------5-------5------|6-----------6-----------6------|
  A|3---------------3-------3------|-------------------------------|
  E|-------------------------------|-------------------------------|  

 

    00:55                                                              

  e|1------ 1---1-- ----1-- 1------|2------ ----2-/ 5---5-- 5------| 
  B|1-------1---1-------1---1------|1-----------1-/-4---4---4------|
  G|2-------2---2-------2---2------|2-----------2-/-5---5---5------|
  D|3-------3---3-------3---3------|1-----------1-/-4---4---4------|
  A|3-------3---3-------3---3------|-------------------------------|
  E|1-------1---1-------1---1------|-------------------------------|
    love                    all around                  but     I
  e|----1-- 0------ ------- -------|------- ------- ------- -------|
  B|------------1---3--------------|----1--------------------------|
  G|-------------------------------|------------2------------------|
  D|-------------------------------|----------------4--------------|
  A|-------------------------------|-------------------------------|
  E|-------------------------------|-------------------------------|



[ Tab from: http://www.guitartabs.cc/tabs/b/beatles/till_there_was_you_tab_ver_4.html ]
  e|3---3-- 3------ 3------ 3------|6---6-- ----6-- ----6-- 6------|
  B|3---3---3-------3-------3------|6---6-------6-------6---6------|
  G|3---3---3-------3-------3------|6---6-------6-------6---6------|
  D|5---5---5-------5-------5------|8---8-------8-------8---8------|
  A|5---5---5-------5-------5------|8---8-------8-------8---8------|
  E|3---3---3-------3-------3------|6---6-------6-------6---6------|
    never               heard   it  singing                     No
  e|------- ------- ------- -------|------- ------- ------- -------|
  B|-------------------------------|----2--------------------------|
  G|----3--------------------------|------------3------------------|
  D|------------5-----------5------|----------------3--------------|
  A|----------------5--------------|-------------------------------|
  E|-------------------------------|-------------------------------|




  e|1------ 1-----/ 5---5-- ----4--|3------ 3------ 3------ 3------|
  B|1-------1-----/-5---5-------4--|3-------3------3--------3------|
  G|2-------2-----/-5---5-------4--|3-------3-----3---------3------|
  D|3-------3-----/-7---7-------6--|5-------5----2----------2------|
  A|3-------3-----/-7---7-------6--|5-------5---3-----------3------|
  E|1-------1-----/-5---5-------4--|3-------3----------------------|
        I       never            at                             till        
                    heard       it all
  e|------- ------- ------- -------|------- ------- ------- -------|
  B|-------------------------------|----------------3--------------|
  G|2------------------------------|----------------3--------------|
  D|3-------------------5-------4--|3-------3-------2--------------|
  A|3-----------3-/-7---7-------6--|5-------5-------3--------------|
  E|1-------------------5-------4--|3-------3----------------------|

  


  e|1------ 1---1-- ----1-- 1------|3-----3 3------ 3------ -------| 
  B|1-------1---1-------1---1------|3-----3-3-------3--------------|
  G|2-------2---2-------2---2------|3-----3-3-------3--------------|
  D|3-------3---3-------3---3------|5-----5-5-------2--------------|
  A|3-------3---3-------3---3------|5-----5-5-------3--------------|
  E|1-------1---1-------1---1------|3-----3-3----------------------|
    there   was you.
  e|------- ------- ------- -------|------- ------- ------- -------|
  B|-------------------------------|-------------------------------|
  G|2-----------2-----------2------|------------------------2---3--|
  D|3-----------3-----------3------|-------------------------------|
  A|3-----------3-----------3------|-------------------------------|
  E|1-----------1-----------1------|-------------------------------|


    SOLO
    01:10

  e|1------ 1------ 1---1-- 1------|2------ 2-----/ 5---5-- 5------|
  B|1-------1-------1---1---1------|1-------1-----/-4---4---4------|
  G|2-------2-------2---2---2------|2-------2-----/-5---5---5------|
  D|3-------3-------3---3---3------|1-------1-----/-4---4---4------|
  A|3-------3-------3---3---3------|-------------------------------|
  E|1-------1-------1---1---1------|-------------------------------|

  e|----1-- ------- ------- -------|------- ------- ------- -------|
  B|1-------3---1------------------|--------1---4--/3---1----------|
  G|----------------3---2---0------|----2-------------------3---2--|
  D|----------------------------3--|4------------------------------|
  A|-------------------------------|-------------------------------|
  E|-------------------------------|-------------------------------|




  e|3------ 3------ 3---3-- 3------|6------ 6---6-- 6------ 6---6--|
  B|3-------3-------3---3---3------|6-------6---6---6-------6---6--|
  G|3-------3-------3---3---3------|6-------6---6---6-------6---6--|
  D|5-------5-------5---5---5------|8-------8---8---8-------8---8--|
  A|5-------5-------5---5---5------|8-------8---8---8-------8---8--|
  E|3-------3-------3---3---3------|6-------6---6---6-------6---6--|

  e|------3 ----3-- ----3-- ----3-/|6-----6 8---6-- 8---6-- 8---6--|
  B|------3-----3-------3-------3-/|6-----6-6---6---6---6---6---6--|
  G|------3-5---3---5---3---5---3-/|6-----6-8---6---8---6---8---6--|
  D|5------------------------------|-------------------------------|
  A|-------------------------------|-------------------------------|
  E|-------------------------------|-------------------------------|




  e|1------ 1------ ----5-- ----4--|3------ 3------ 3------ 3------|
  B|1-------1-----------5-------4--|3-------3-------3-------3------|
  G|2-------2-----------5-------4--|3-------3-------3-------3------|
  D|3-------3-----------7-------6--|5-------5-------2-------2------|
  A|3-------3-----------7-------6--|5-------5-------3-------3------|
  E|1-------1-----------5-------4--|3-------3----------------------|

  e|------- ------- ----8-- ----7--|6------ ------- 5------ -------| 
  B|--------10---------10-------9--|8---------------5--------------|
  G|-----10-------------9-------8--|7---------------3--------------5
  D|---10-----------10------9------|8---------------2-------------7|
  A|8------------------------------|----------------5------------8-|
  E|-------------------------------|------------2------------------|




  e|1------ 1---1-- ----1-- 1------|8------ ----8-- ------- 8------|
  B|1-------1---1-------1---1------|8-------x---8-----------8------|
  G|2-------2---2-------2---2------|8-------x---8-----------8------|
  D|3-------3---3-------3---3------|7-------x---7-----------7------|
  A|3-------3---3-------3---3------|8-----------8-----------8------|
  E|1-------1---1-------1---1------|-------------------------------|
                                                    Then        was
                                                         there
  e|------- ------- ------- -------|------- ------- ------- -------|
  B|6---6--------------------------|--------------------------6----|
  G|----------5--------------------|---------------------5---------|
  D|----------------7--------------|----------4--/--7--------------|
  A|-------------------------------|3----6-------------------------|
  E|----------------------------5--|-------------------------------|
      


    01:26                                                   
    Bb                              Bbm
  e|6------ ----6-- ----6-- 6------|6-----6 6---6-- 6---6-- 6------|
  B|6-------x---6-------6---6------|6-----6-6---6---6---6---6------|
  G|7-------x---7-------7---7------|6-----6-6---6---6---6---6------|
  D|8-------x---8-------8---8------|8-----8-8---8---8---8---8------|
  A|8-----------8-------8---8------|8-----8-8---8---8---8---8------|
  E|6-----------6-------6---6------|6-----6-6---6---6---6---6------|
        music                                   and     wondeful
  e|------- ------- ------- -------|------- ------- ------- -------|
  B|-------------------------------|-------------------------------|
  G|7------------------------------|6-----------6------------------|
  D|-------------------------------|----------------8--------------|
  A|-------------------------------|-------------------------------|
  E|-------------------------------|-------------------------------|



    F                               D9
  e|1------ 1---1-- 1---1-- 1------|5------ ----5-- ------- 5------|
  B|1-------1---1---1---1---1------|5-----------5-----------5------|
  G|2-------2---2---2---2---2------|5-----------5-----------5------|
  D|3-------3---3---3---3---3------|7-----------7-----------7------|
  A|3-------3---3---3---3---3------|5-----------5-----------5------|
  E|1-------1---1---1---1---1------|-------------------------------|
    roses                       they    tell    me              in 
  e|------- ------- ------- -------|------- ------- ------- -------|
  B|-------------------------------|-------------------------------|
  G|-------------------------------|-------------------------------|
  D|7-----------7-------7---7------|------4------------------------|
  A|-------------------------------|-----------5-------------------|
  E|-------------------------------|5---------------5--------------|


                                    
    Gm                              G7
  e|3------ 3---3-- ----3-- 3------|3-----3 3---3-- ----3-- 3------|
  B|3-------3---3-------3---3------|6-----6-6---6-------6---6------|
  G|3-------3---3-------3---3------|4-----4-4---4-------4---4------|
  D|5-------5---5-------5---5------|3-----3-3---3-------3---3------|
  A|5-------5---5-------5---5------|5-----5-5---5-------5---5------|
  E|3-------3---3-------3---3------|3-----3-3---3-------3---3------|
    sweet               fragant     meadows                     of
  e|------- ------- ------- -------|------- ------- ------- 3------|
  B|3----3----3-----3----3----3----|3-----------3---3-------6------|
  G|3----3----3-----3----3----3----|3-----------3---3-------4------|
  D|5----5----5-----4----4----4----|3-----------3---3-------3------|
  A|5----5----5-----5----5----5----|5-----------5---5-------5------|
  E|-------------------------------|------------------------3------|
    Gm              D+5             Dm+5                    G7



    C               C9              C+5
  e|0------ 0------ 3---3-- 3------|4-----4 4---4-- ------- 4------|
  B|1-------1-------3---3---3------|5-----5-5---5-----------5------|
  G|0-------0-------3---3---3------|5-----5-5---5-----------5------|
  D|2-------2-------2---2---2------|6-----6-6---6-----------6------|
  A|3-------3-------3---3---3------|-------------------------------|
  E|-------------------------------|-------------------------------|
    dawn                        and     dew             There   was
  e|------- ------- ------- -------|4------ ----4-- ------- 4------|
  B|5-------5-------3-------3------|5-----------5-----------5------|
  G|5-------5-------3-------3------|5-----------5-----------5------|
  D|5-------5-------5-------5------|6-----------6-----------6------|
  A|3-------3-------3-------3------|-------------------------------|
  E|-------------------------------|-------------------------------|  
 
 

    00:55                                                              

  e|1------ 1------ 1---1-- 1------|------- 2----/- 5------ 8------| 
  B|1-------1-------1---1---1------|1-------1----/--4-------7------|
  G|2-------2-------2---2---2------|2-------2----/--5-------8------|
  D|3-------3-------3---3---3------|1-------1----/--4-------7------|
  A|3-------3-------3---3---3------|-------------------------------|
  E|1-------1-------1---1---1------|-------------------------------|
    love                    all around                  but     I
  e|----1-- 0------ ------- -------|------- ------- ------- -------|
  B|------------1---3--------------|----1--------------------------|
  G|-------------------------------|------------2------------------|
  D|-------------------------------|----------------4--------------|
  A|-------------------------------|-------------------------------|
  E|-------------------------------|-------------------------------|




  e|3------ 3------ 3---3-- 3------|6---6-- 6------ 6---6-- 6------|
  B|3-------3-------3---3---3------|6---6---6-------6---6---6------|
  G|3-------3-------3---3---3------|6---6---6-------6---6---6------|
  D|5-------5-------5---5---5------|8---8---8-------8---8---8------|
  A|5-------5-------5---5---5------|8---8---8-------8---8---8------|
  E|3-------3-------3---3---3------|6---6---6-------6---6---6------|
    never               heard   it  singing                     No
  e|------- ------- ------- -------|------- ------- ------- -------|
  B|3------------------------------|----2--------------------------|
  G|------------3------------------|------------3------------------|
  D|-------------------------------|----------------3--------------|
  A|-------------------------------|-------------------------------|
  E|-------------------------------|-------------------------------|




  e|1------ 1-----/ 5---5-- ----4--|3-----3 3------ 3-----3 3------|
  B|1-------1-----/-5---5-------4--|3-----3-3-------3-----3-3------|
  G|2-------2-----/-5---5-------4--|3-----3-3-------3-----3-3------|
  D|3-------3-----/-7---7-------6--|5-----5-5-------2-----2-2------|
  A|3-------3-----/-7---7-------6--|5-----5-5-------3-----3-3------|
  E|1-------1-----/-5---5-------4--|3-----3-3----------------------|
        I       never            at                             till        
                    heard       it all 
  e|------- ------- ------- -------|------- ------- ------- -------|
  B|-------------------------------|----------------3--------------|
  G|--------2----------------------|----------------3--------------|
  D|3-------------------5-------4--|3---------------2--------------|
  A|3-----------3-/-7---7-------6--|5---------------3--------------|
  E|1-------------------5-------4--|3------------------------------|

  


  e|1-----1 1---1-- ----1-- 1---1--|1-----1 1---1-- ----1-- 1------|
  B|1-----1-1---1-------1---1---1--|1-----1-1---1-------1---1------|
  G|2-----2-2---2-------2---2---2--|2-----2-2---2-------2---2------|
  D|3-----3-3---3-------3---3---3--|3-----3-3---3-------3---3------|
  A|3-----3-3---3-------3---3---3--|3-----3-3---3-------3---3------|
  E|1-----1-1---1-------1---1---1--|1-----1-1---1-------1---1------|
    there   was you.
  e|------- ------- ------- -------|------- ------- ------- -------|
  B|-------------------------------|-------------------------------|
  G|2-----------2-------2---2------|2-----------2-------2---2------|
  D|3-----------3-------3---3------|3-----------3-------3---3------|
  A|3-----------3-------3---3------|3-----------3-------3---3------|
  E|1-----------1-------1---1------|1-----------1-------1---1------|



    01:57
    C               E               C
  e|0------ 0---0-- 0------ 0---0--|0------ 0---0-- ----0-- 0------|
  B|1------1----1---0------0----0--|1------1----1-------1---1------|
  G|0-----0-----0---1-----1-----1--|0-----0-----0-------0---0------|
  D|2----2------2---2----2------2--|2----2------2-------2---2------|
  A|3---3-------3---2---2-------2--|3---3-------3-------3---3------|
  E|-------------------------------|-------------------------------|
    Till                                                there
  e|------- ------- ------- -------|------- ------- ------- -------|
  B|-------------------------------|-------------------------------|
  G|0------0----0---1------1----1--|0-------0---0---0--------------|
  D|2-----2-----2---2-----2-----2--|2------2----2---2--------------|
  A|3----3------3---2----2------2--|3-----2-----3---3--------------|
  E|3---3-------3---0---0-------0--|3----0------3---3--------------|



    F                               Db
  e|1------ ----1-- 1------ 1------|4-----4 ----4-- ------- 4------|
  B|1-----------1---1-------1------|6-----6-x---6-----------6------|
  G|2-----------2---2-------2------|6-----6-x---6-----------6------|
  D|3-----------3---3-------3------|6-----6-x---6-----------6------|
  A|3-----------3---3-------3------|4-----4-----4-----------4------|
  E|1-----------1---1-------1------|-------------------------------|
    was you.
  e|------- ------- 10---13 --10---|-9----- 11---9- ----11- -9-----|
  B|----------------10---10---10---|-9-------9---9-------9---9-----|
  G|----------------10---10---10---|10------10--10------10--10-----|
  D|----------------10---10---10---|-9-------9---9-------9---9-----|
  A|-------------------------------|11------11--11------11--11-----|
  E|-------------------------------|-9-------9---9-------9---9-----|
                                     Db      Db9

                                                   (.
                                                    Fmaj9
  e|1------ ----1-- ----1-- 1---1--|1------ ------- 3------ -------|
  B|1-----------1-------1---1---1--|1---------------5--------------|
  G|2-----------2-------2---2---2--|2---------------5--------------|
  D|3-----------3-------3---3---3--|3---------------3--------------|
  A|3-----------3-------3---3---3--|3---------------3--------------|
  E|1-----------1-------1---1---1--|1------------------------------|

  e|------- ------- ------- -------|------- ------- ------- -------|
  B|-------------------------------|----------------8--------------|
  G|-------------------------------|----------------9--------------|
  D|-------------------------------|---------------10--------------|
  A|-------------------------------|----------------8--------------|
  E|-------------------------------|-------------------------------|








        B  Bend
        R  Release
        /  Slide up
        \  Slide down
        H  Hammer-on
        P  Pull-off
        ~  Vibrato
        +  Harmonic
        x  Mute note
        .  Play note like a dot in standard notation
        ^  Ties two notes together
        (. Pause




Comments