Beatles - Till There Was You Chords & Tabs

 

Till There Was You Chords & Tabs

Beatles Chords & Tabs

Version: 1 Type: Tab 0 ratings
1 star 2 stars 3 stars 4 stars 5 stars
comments

Till There Was You Tab

   
#----------------------------------PLEASE NOTE---------------------------------#
#This file is the author's own work and represents their interpretation of the #
#song. You may only use this file for private study, scholarship, or research. #
#------------------------------------------------------------------------------#

From: prusso@dsna12.na.infn.it (Guido Russo) 
 
The Beatles - TILL THERE WAS YOU 
 
 
Intro 
 
-1-----|-----------|-------|------ 
---1---|-----------|-3-----|------ 
-----2-|-----------|---3---|------ 
-------|-4---------|-----5-|------ 
-------|-----------|-------|-3---- 
-------|-----------|-------|------ 
 F       B7/9- (1)   Gm      C7/9 
 
            F          B7/9- (1) 
[ Tab from: http://www.guitartabs.cc/tabs/b/beatles/till_there_was_you_tab.html ]
Then the solo. It's played by two guitars, so I tried to merge the lines 
 
-----|---1-----|---------|-----------|---------|---3-5-3-|-5-3-5-3-| 
-----|-1---3-1-|---------|-----1-4---|-3-1-----|---3-3-3-|-3-3-3-3-| 
-2-3-|---------|-3-2-0---|---2-------|-----3-2-|-3-3-3-3-|-3-3-3-3-| 
-----|---------|-------3-|-4---------|---------|---------|---------| 
-----|---------|---------|-----------|---------|---------|---------| 
-----|---------|---------|-----------|---------|---------|---------| 
       F                   B7/9- (1)             Gm 
 
---6-8-6-|-8-6-8-6-|-- -10-|-8--7---|-6--|-5----|-1-1---|-----| 
---6-6-6-|-6-6-6-6-|-- -10-|-5--4---|-3--|-5----|-----1-|-----| 
-6-6-6-6-|-6-6-6-6-|-- -10-|-5--4---|-3--|-3----|-------|-2---| 
---------|---------|-10-- -|-7--6---|-5--|-5----|-------|-----| 
---------|---------|-------|--------|----|-3----|-------|---0-| 
---------|---------|-------|--------|----|-3----|-------|-----| 
 Bbm                 F       Am G#m   Gm   C7/6   F 
 
-----------|-----1- 
-----------|---1--- 
-----------|-2----- 
---1-4-----|------- 
-3---------|------- 
-----------|------- 
 B7/9- (2)   Then there was you .....

1|111111|  2|111111|   3|-0----|   3|111111|  |======|  6|111111| 
 |---2--|   |-2----|    |--1-2-|    |------|  |------|   |------| 
 |-34---|   |--3-4-|    |---3-4|    |-34---|  |--1---|   |-34---| 
 |------|   |------|    |------|    |------|  |-2-34-|   |------| 
    F       B7/9- (1)   B7/9- (2)      Gm       C7/9        Bbm 
 
5|111111|  4|111111|  6|111111|  2|111111|  3|111111|  3|111111| 
 |------|   |------|   |---2--|   |----2-|   |--2---|   |---2--| 
 |-34---|   |-34---|   |-34---|   |--3---|   |-3----|   |-3----| 
 |------|   |------|   |------|   |-4----|   |------|   |----4-| 
    Am        G#m         Bb          D        Gm7+        G7 
 
|======|  3|111111|  |======|  |======|  4|111111|  |======| 
|----1-|   |------|  |----1-|  |---1--|   |------|  |----1-| 
|--2---|   |--3-4-|  |--2---|  |-23---|   |--234-|  |---2--| 
|-3-4--|   |------|  |-3----|  |------|   |------|  |-34---| 
 C7 (1)     C7 (2)       C         E         C#        F7+ 
 
 


Comments