Beatles - Think For Yourself Chords & Tabs

 

Think For Yourself Chords & Tabs

Beatles Chords & Tabs

Version: 6 Type: Bass Tab 0 ratings
1 star 2 stars 3 stars 4 stars 5 stars
comments

Think For Yourself Bass Tab

THINK FOR YOURSELF

By George Harrison

FUZZ BASS

INTRO
                                                     .    .    .
G|---------------------------------|---------------------------------|
D|-5-------5-------5-----3h5-5-----|-5-------5-------5----5----6-----|
A|---------------------------------|---------------------------------|
E|---------------------------------|---------------------------------|

VERSE

G|---------------------------------|-7-------------7h9----7----5-----|
D|-7-------------------------------|---------------------------------|
A|---------------------------------|---------------------------------|
E|---------------------------------|---------------------------------|

G|---------------------------------|-5---------------------------5---|
D|-8-------------------------------|---------------------------------|
A|---------------------------------|---------------------------------|
E|---------------------------------|---------------------------------|

                                                          .    .
G|---------------------------------|---------------------------------|
D|-5-------------------5-----------|-5--------------------5----6-----|
A|-------------------------5-------|---------------------------------|
E|---------------------------------|---------------------------------|

G|---------------------------------|-7-------------7h9----7----5-----|
D|-7---------------------------7---|---------------------------------|
A|---------------------------------|---------------------------------|
E|---------------------------------|---------------------------------|

G|---------------------------------|-5---------------------------5---|
D|-8---------------------------8---|---------------------------------|
A|---------------------------------|---------------------------------|
E|---------------------------------|---------------------------------|

G|---------------------------------|---------------------------------|
D|-5---------------------------5---|-7---------------------------5---|
A|---------------------------------|---------------------------------|
E|---------------------------------|---------------------------------|

CHORUS

G|---------------------------------|---------3-------2---------------|
D|---------2-------5---5---2-------|---------------------5-----------|
A|-3-------------------------------|-3---3-------------------7-\-5---|
E|---------------------------------|---------------------------------|

                                     .    .    .     .    .    .
G|---------3-h-4-----------3h4-----|---------------------------------|
D|-5---5-----------5---5-----------|------3--------------------------|
A|---------------------------------|-5---------5-----3----1----------|
E|---------------------------------|---------------------------3-----|

G|---------------------------------|---------------------------------|
D|---------------------------------|-----------------------------3---|
A|-1---------------------------3---|-5-------------------5-----------|
E|---------------------------------|---------------------------------|

G|---------3-----------------------|---------------------------------|
D|-5-------------------------------|-----3-----5-----------5-----6---|
A|-----------------------------5---|---------------------------------|
E|---------------------------------|---------------------------------|

VERSE

G|---------------------------------|-7-------------7h9----7----5-----|
D|-7-------------------------------|---------------------------------|
A|---------------------------------|---------------------------------|
E|---------------------------------|---------------------------------|

G|---------------------------------|-5---------------------------5---|
D|-8---------------------------8---|---------------------------------|
A|---------------------------------|---------------------------------|
E|---------------------------------|---------------------------------|

                                                           .     .
G|---------------------------------|---------------------------------|
D|-5-------------------5---8-------|-5-----------8---5-----5-----6---|
A|---------------------------------|---------------------------------|
E|---------------------------------|---------------------------------|

G|---------------------------------|-7-------------7h9----7----5-----|
D|-7---------------------------7---|---------------------------------|
A|---------------------------------|---------------------------------|
E|---------------------------------|---------------------------------|

G|---------------------------------|-5---------------------------5---|
D|-8---------------------------8---|---------------------------------|
A|---------------------------------|---------------------------------|
E|---------------------------------|---------------------------------|

G|---------------------------------|---------------------------------|
D|-5---------------5-----------5---|-7-----------7---------------5---|
A|---------------------------------|---------------------------------|
E|---------------------------------|---------------------------------|

CHORUS

G|---------------------------------|---------3-------2---------------|
D|---------2-------5---5---2-------|---------------------5-----------|
A|-3---3---------------------------|-3---3-------------------7-\-5---|
E|---------------------------------|---------------------------------|
[ Tab from: http://www.guitartabs.cc/tabs/b/beatles/think_for_yourself_btab_ver_6.html ]
                                     .    .    .     .    .    .
G|---------3-h-4-----------3-h-4---|---------------------------------|
D|-5---5---------------------------|------3--------------------------|
A|-----------------5---5-----------|-5---------5-----3----1----------|
E|---------------------------------|---------------------------3-----|

G|---------------------3-----------|---------------------------------|
D|---------------------------------|---------------------------------|
A|-1---------------------------3---/-5-----------5---5---------------|
E|---------------------------------|---------------------------------|

G|---------3-----------------------|---------------------------------|
D|-5---------------------------3---|---------5-------5-----5-----6---|
A|-------------------------5-------|---------------------------------|
E|---------------------------------|---------------------------------|

VERSE

G|---------------------------------|-7-------------7h9----7----5-----|
D|-7-------------------------------|---------------------------------|
A|---------------------------------|---------------------------------|
E|---------------------------------|---------------------------------|

G|---------------------------------|-5---------------------------5---|
D|-8---------------------------8---|---------------------------------|
A|---------------------------------|---------------------------------|
E|---------------------------------|---------------------------------|

G|---------------------------------|-----------------3---------------|
D|-5-------------------------------|-5-------------------5---5---6---|
A|---------------------------------|---------------------------------|
E|---------------------------------|---------------------------------|

G|---------------------------------|-7-------------7h9----7----5-----|
D|-7---------------------------7---|---------------------------------|
A|---------------------------------|---------------------------------|
E|---------------------------------|---------------------------------|

G|---------------------------------|-5---------------------------5---|
D|-8---------------------------8---|---------------------------------|
A|---------------------------------|---------------------------------|
E|---------------------------------|---------------------------------|

G|---------------------------------|---------------------------------|
D|-5---------------------------5---|-7---------------------------5---|
A|---------------------------------|---------------------------------|
E|---------------------------------|---------------------------------|

CHORUS

G|---------------------------------|---------3-------2---------------|
D|---------2-------5---5---2-------|---------------------5-----------|
A|-3-------------------------------|-3---3-------------------7-\-5---|
E|---------------------------------|---------------------------------|

                                     .    .    .     .    .    .
G|---------4-----------------------|---------------------------------|
D|-5---5-----------5---5---5-------|------3--------------------------|
A|---------------------------------|-5---------5-----3----1----------|
E|---------------------------------|---------------------------3-----|

G|---------------------------------|---------------------------------|
D|---------------------------------|-------------------------3---4---|
A|-1---------------------------3---|-5-------------------5-----------|
E|---------------------------------|---------------------------------|

G|---------------------------------|---------------------------------|
D|-5-------5-----------------------|-5-------5-------5p3-------------|
A|-----------------------------5---|---------------------5---3---1---|
E|---------------------------------|---------------------------------|

OUTRO

G|---------------------------------|-----3---------3p2---------------|
D|---------------------------------|---------------------5-----------|
A|-1---3-----------1---3---3---1---|-3-----------------------7-\-5---|
E|---------------------------------|---------------------------------|

                                     .    .    .     .    .    .
G|---------3h4-------------3h4-----|---------------------------------|
D|-5---5---------------------------|------3--------------------------|
A|-----------------5---5-----------|-5---------5-----3----1----------|
E|---------------------------------|---------------------------3-----|

G|---------------------------------|---------------------------------|
D|---------------------------------|---------------------------------|
A|-1-----------1---1-----------3---|-5-------5-------5---5-------5---|
E|---------------------------------|---------------------------------|

G|---------------------------------|---------------------------------|
D|---------------------------------|-5-------5-------5---5-----------|
A|-3-------3-------3---3-------3---|-----------------------------5---|
E|---------------------------------|---------------------------------|

G|---------------------------------|---------------------------------|
D|---------------------------------|---------------------------------|
A|-1-------------------1-------3---|-5-------5-------5---5-------5---|
E|---------------------------------|---------------------------------|

G|---------3-------3-------3-------|---------------------------------|
D|-5-------------------------------|-5-------3---5-------------------|
A|---------------------------------|-----5---------------------------|
E|---------------------------------|---------------------------------|
Comments