Beatles - The Word Chords & Tabs

 

The Word Chords & Tabs

Beatles Chords & Tabs

Version: 6 Type: Bass Tab 0 ratings
1 star 2 stars 3 stars 4 stars 5 stars
comments

The Word Bass Tab

THE WORD

INTRO

                                                     00:00
G|---------------------------------|---------------------------------|
D|---------------------------------|---------------------------------|
A|---------------------------------|---------------------------------|
E|---------------------------------|---------------------------------|

G|---------------------------------|---------------------------------|
D|---------------------------------|---------------------------------|
A|-5---5-------5-3-------------3-4-|-5---5-------5-3-------------3-4-|
E|-----------------5---5-----------|-----------------5---5-----------|

VERSE

  00:05

G|---------------------------------|---------------------------------|
D|---------------------------------|---------------------------------|
A|-5---5-------5-3-------------3-4-|-5---5-------5-3-------------3-4-|
E|-----------------5---5-----------|-----------------5---5-----------|

G|---------------------------------|---------------------------------|
D|---------------------------------|-------------------------------3-|
A|-5---5-------5-3-------------3-4-|-5---5-------5-3-------------5---|
E|-----------------5---5-----------|-----------------5---5-----------|

G|---------------------------------|---------------------------------|
D|-5---5-------5-3---------------3-|-5---5-------5-3-----------------|
A|-----------------5---5-------5---|-----------------5---5---3-------|
E|---------------------------------|-----------------------------5---|

G|---------------------------------|---------------------------------|
D|---------------------------------|---------------------------------|
A|-5---5-------5-----------------3-|-5---5-------5-3---------3-------|
E|---------------5-5---5-------5---|-----------------5---5-------5---|

G|---------------------------------|---------------------------------|
D|-------------7-------------------|-------------5-------------------|
A|-----4---7-----------------------|-----2---5-----------------------|
E|-5-------------------------------|-3-------------------------------|

G|---------------------------------|---------------------------------|
D|---------------------------------|---------------------------------|
A|-5-----------5-----------------3-|-5---5-------5-3-----------------|
E|---------------5-5---5-------5---|-----------------5---5-----------|

BRIDGE

  00:28

G|---------------------------------|---------------------------------|
D|---------------------------------|---------------------------------|
A|-5-------5-------5-------5-------|-3-------3-------3-------3-------|
E|---------------------------------|---------------------------------|

G|---------------------------------|-----------------------------5---|
D|-3-------3-------3-------3-------|-5-------5-------7------/7-------|
A|---------------------------------|---------------------------------|
E|---------------------------------|---------------------------------|

VERSE

  00:36

G|---------------------------------|---------------------------------|
D|---------------------------------|---------------------------------|
A|-5-----------5-3-------------3-4-|-5---5-------5-X-------------3-4-|
E|-----------------5---5-----------|-----------------5---5-----------|

G|---------------------------------|---------------------------------|
D|---------------------------------|-------------------------------3-|
A|-5---5-------5-----------------3-|-5---5-------5-3-------------5---|
E|-----------------5---5-------5---|-----------------5---5-----------|

G|---------------------------------|---------------------------------|
D|-5---5-------5---------------3---|-5---5-------5-3-------------3---|
A|---------------5-5---5-----------|-----------------5---5-----------|
E|---------------------------------|---------------------------------|

G|---------------------------------|---------------------------------|
D|---------------------------------|---------------------------------|
A|-5---5-------5-3---------------3-|-5---5---3-----------------------|
E|-----------------5---5-------5---|-----------------5---5---3-------|

G|---------------------------------|---------------------------------|
D|-------------7-------------------|-------------5-------------------|
A|-----4---7-----------------------|-----2---5-----------------------|
E|-5-------------------------------|-3-------------------------------|

G|---------------------------------|---------------------------------|
D|---------------------------------|---------------------------------|
A|-5-----------5-X---------------3-|-5---5-------5-3-----------------|
E|-----------------5---5-------5---|-----------------5---5-----------|

BRIDGE

  00:59

G|---------------------------------|---------------------------------|
D|---------------------------------|---------------------------------|
A|-5-------5-------5-------5-------|-3-------3-------3-------3-------|
E|---------------------------------|---------------------------------|

G|---------------------------------|-----------------------------5---|
D|-3-------3-------3-------3-------|-5-------5-------5-------5/7-----|
A|---------------------------------|---------------------------------|
E|---------------------------------|---------------------------------|

VERSE

  01:07

G|---------------------------------|---------------------------------|
D|---------------------------------|---------------------------------|
A|-5-----------5-3-------------3-4-|-5---5-------5-3---------3-------|
E|-----------------5---5-----------|-----------------5---5-------5---|

G|---------------------------------|---------------------5-----------|
D|---------------------------------|---------------3-5/7---7\5-3-----|
A|-5---5-------5-3---------------3-|-5---5-------5---------------5---|
E|-----------------5---5-------5---|---------------------------------|

G|---------------------------------|---------------------------------|
D|-5---5-------5-----------------3-|-5---5-------5-3-----------------|
A|-----------------5---5-------5---|-----------------5---5-----------|
E|---------------------------------|-------------------------5---5---|
[ Tab from: http://www.guitartabs.cc/tabs/b/beatles/the_word_btab_ver_6.html ]
G|---------------------------------|---------------------------------|
D|---------------------------------|---------------------------------|
A|-5---5-------5-3---------------3-|-5---5---3-----------------------|
E|-----------------5---5-------5---|-----------------5---5---3-------|

G|---------------------------------|---------------------------------|
D|-------------7-------------------|-------------5-------------------|
A|-----4---7-----------------------|-----2---5-----------------------|
E|-5-------------------------------|-3-------------------------------|

G|---------------------------------|---------------------------------|
D|---------------------------------|---------------------------------|
A|-5-----------5---------------3-4-|-5---5-------5-3-----------------|
E|---------------5-5---5-----------|-----------------5---5-----------|

BRIDGE

  01:31

G|---------------------------------|---------------------------------|
D|---------------------------------|---------------------------------|
A|-5-------5-------5-------5-------|-3-------3-------3-------3-------|
E|---------------------------------|---------------------------------|

G|---------------------------------|-------------------------5-------|
D|-3-------3-------3-------3-------|-5-------5-------5-/-7-----------|
A|---------------------------------|---------------------------------|
E|---------------------------------|---------------------------------|

VERSE

  01:38

G|---------------------------------|---------------------------------|
D|---------------------------------|---------------------------------|
A|-5-----------5-3-------------3-4-|-5---5-------5-3---------3---4---|
E|-----------------5---5-----------|-----------------5---5-----------|

G|---------------------------------|---------------------------------|
D|---------------------------------|---------------------------------|
A|-5---5-------5-3---------------3-|-5---5---3-----------------------|
E|-----------------5---5-------5---|-----------------5---5---3-------|

G|---------------------------------|---------------------------------|
D|-5---5-------5-----------------3-|-5---5-------5-3-----------------|
A|-----------------5---5-------5---|-----------------5---5---3---5---|
E|---------------------------------|---------------------------------|

G|---------------------------------|---------------------------------|
D|---------------------------------|---------------------------------|
A|-5---5-------5-3---------------3-|-5---5---3-----------------------|
E|-----------------5---5-------5---|-----------------5---5---3-------|

G|---------------------------------|---------------------------------|
D|-------------7-------------------|-------------5-------------------|
A|-----4---7-----------------------|-----2---5-----------------------|
E|-5-------------------------------|-3-------------------------------|

G|---------------------------------|---------------------------------|
D|---------------------------------|---------------------------------|
A|-5-----------5-3---------3---3---|-5---5-------5-3-----------------|
E|-----------------5---5-----------|-----------------5---5-------5---|

INTERLUDE

  02:02

G|---------------------------------|---------------------------------|
D|---------------------------------|---------------------------------|
A|-5-------5-------5-------5-------|-3-------3-------3-------3-------|
E|---------------------------------|---------------------------------|

G|---------------------------------|---------------------5-------5---|
D|-3-------3-------3-------3-------|-5-------5-------5/7-----5/7-----|
A|---------------------------------|---------------------------------|
E|---------------------------------|---------------------------------|

G|---------------------------------|---------------------------------|
D|---------------------------------|---------------------------------|
A|-5-------5-----3---------3---4---|-5-------5-----5---------3---4---|
E|-----------------5---5-----------|-----------------5---5-----------|

OUTRO

  02:14

G|---------------------------------|---------------------------------|
D|---------------------------------|-----------------------------3---|
A|-5-------5---------------3---4---|-5-------5-----3-----3---5-------|
E|---------------5-5---5-----------|-----------------5---------------|

G|---------------------------------|---------------------5-----------|
D|-5-------5-----5---------3---4---|-5-------5---3---5/7---7\5-3-----|
A|-----------------5---5-----------|-----------------------------5---|
E|---------------------------------|---------------------------------|
   .   .   .   .   .   .   .   .
G|---------------------------------|---------------------------------|
D|---------------------------------|---------------------------------|
A|-5---5---5---3-----------3---4---|-5---5-------5-3---------3-------|
E|-----------------5---5-----------|-----------------5---5-------5---|

G|---------------------------------|---------------------------------|
D|-------------7-------------------|-------------5-------------------|
A|-----4---7-----------------------|-----2---5-----------------------|
E|-5-------------------------------|-3-------------------------------|

G|---------------------------------|---------------------------------|
D|---------------------------------|---------------------------------|
A|-5-------5-----3---------3---4---|-5-------5-----3-----------------|
E|-----------------5---5-----------|-----------------5-------5-------|

  02:34

G|---------------------------------|---------------------------------|
D|---------------------------------|---------------------------------|
A|-5-------5-------5-------5-------|-3-------3-------3-------3-------|
E|---------------------------------|---------------------------------|

G|---------------------------------|---------------------------------|
D|-3-------3-------3-------3-------|-5-------5-------5-------5-------|
A|---------------------------------|---------------------------------|
E|---------------------------------|---------------------------------|
                                                             FADE OUT
Comments