Beatles - The Word Chords & Tabs

 

The Word Chords & Tabs

Beatles Chords & Tabs

Version: 5 Type: Bass Tab 0 ratings
1 star 2 stars 3 stars 4 stars 5 stars
comments

The Word Bass Tab

The Word
The Beatles
Written by John Lennon and Paul McCartney; released on "Rubber Soul" album

Some people describe this song as the precedessor of "All You Need Is Love".

Intro:
G|------- ------- ------- -------|------- ------- ------- -------|
D|-------------------------------|-------------------------------|
A|-------------------------------|-------------------------------|
E|-------------------------------|-------------------------------|



G|------- ------- ------- -------|------- ------- ------- -------|
D|-------------------------------|-------------------------------|
A|5---5-------5p3-------------3-4|5---5-------5p3-------------3--|
E|----------------5---5----------|----------------5---5----------|
                                                          Say the

Verse:
G|------- ------- ------- -------|------- ------- ------- -------|
D|-------------------------------|-------------------------------|
A|5---5-------5p3-------------3-4|5---5-------5p3-------------3-4|
E|----------------5---5----------|----------------5---5----------|
  word,               and you'll  free,                   say the
                              be

G|------- ------- ------- -------|------- ------- ------- -------|
D|-------------------------------|----------------------------3--|
A|5---5-------5p3-------------3-4|5---5-------5p3----------------|
E|----------------5---5----------|----------------5---5----------|
  word,               and be like me                      Say the


G|------- ------- ------- -------|------- ------- ------- -------|
D|5---5-------5p3-------------3-4|5---5-------5p3----------------|
A|----------------5---5----------|----------------5---5---3------|
E|-------------------------------|----------------------------5--|
  word                I'm thinking of,                    have you


G|------- ------- ------- -------|------- ------- ------- -------|
D|-------------------------------|-------------------------------|
A|5---5-------5p3-------------3-4|5---5-------5p3---------3------|
E|----------------5---5----------|----------------5---5-------5--|
  heard               the word is "love"?                     It's


G|------- ------- ------- -------|------- ------- ------- -------|
D|------------7------------------|------------5------------------|
A|----4---7----------------------|----2---5----------------------|
E|5------------------------------|3------------------------------|
  so          fine,           it's sun   -    shine,      it's the


G|------- ------- ------- -------|------- ------- ------- -------|
D|-------------------------------|-------------------------------|
A|5-----------5p3-------------3-4|5---5-------5p3----------------|
E|----------------5---5----------|----------------5---5----------|
  word                           "love"

Bridge:
G|------- ------- ------- -------|------- ------- ------- -------|
D|-------------------------------|-------------------------------|
A|5-------5-------5-------5------|3-------3-------3-------3------|
E|-------------------------------|-------------------------------|
      In      the             I   misun - derstood,
                beginning

G|------- ------- ------- -------|------- ------- ------- ----5--|
D|3-------3-------3-------3------|5-------5-------5-------5h7----|
A|-------------------------------|-------------------------------|
E|-------------------------------|-------------------------------|
      but now I   got it,     the word is     good        Spread
                                                              the
Verse:
G|------- ------- ------- -------|------- ------- ------- -------|
D|-------------------------------|-------------------------------|
A|5---5-------5p3-------------3-4|5---5-------5p3-------------3-4|
E|----------------5---5----------|----------------5---5----------|
  word,               and you'll  free,                   spread
                              be                              the

G|------- ------- ------- -------|------- ------- ------- -------|
D|-------------------------------|----------------------------3-4|
A|5---5-------5p3-------------3-4|5---5-------5p3----------------|
E|----------------5---5----------|----------------5---5----------|
  word,               and be like me                      Spread
                                                              the

G|------- ------- ------- -------|------- ------- ------- -------|
D|5---5-------5p3-------------3-4|5---5-------5p3-------------5--|
A|----------------5---5----------|----------------5---5----------|
E|-------------------------------|-------------------------------|
  word                I'm thinking of,                    have you


G|------- ------- ------- -------|------- ------- ------- -------|
D|-------------------------------|-------------------------------|
A|5---5-------5p3-------------3-4|5---5---3----------------------|
E|----------------5---5----------|----------------5---5---3------|
  heard               the word is "love"?                     It's


G|------- ------- ------- -------|------- ------- ------- -------|
D|------------7------------------|------------5------------------|
A|----4---7----------------------|----2---5----------------------|
E|5------------------------------|3------------------------------|
  so          fine,           it's sun   -    shine,      it's the


G|------- ------- ------- -------|------- ------- ------- -------|
D|-------------------------------|-------------------------------|
A|5-----------5p3-------------3-4|5---5-------5p3----------------|
E|----------------5---5----------|----------------5---5----------|
  word                           "love"

Bridge:
G|------- ------- ------- -------|------- ------- ------- -------|
D|-------------------------------|-------------------------------|
A|5-------5-------5-------5------|3-------3-------3-------3------|
E|-------------------------------|-------------------------------|
      Eve-  I     go,         I   hear it     said
        rywhere

G|------- ------- ------- -------|------- ------- ------- ----5--|
D|3-------3-------3-------3------|5-------5-------5-------5h7----|
A|-------------------------------|-------------------------------|
E|-------------------------------|-------------------------------|
    in    good the bad books  that I  have    read        Say the
      the   and
Verse:
G|------- ------- ------- -------|------- ------- ------- -------|
D|-------------------------------|-------------------------------|
A|5-----------5p3-------------3-4|5---5-------5p3---------3------|
E|----------------5---5----------|----------------5---5-------5--|
  word,               and you'll  free,                   say the
                              be
[ Tab from: http://www.guitartabs.cc/tabs/b/beatles/the_word_btab_ver_5.html ]
G|------- ------- ------- -------|------- ------- ----5-- -------|
D|-------------------------------|--------------3-5h7---7p5-3----|
A|5---5-------5p3-------------3-4|5---5-------5---------------5--|
E|----------------5---5----------|-------------------------------|
  word,               and be like me                      Say the


G|------- ------- ------- -------|------- ------- ------- -------|
D|5---5-------5p3-------------3-4|5---5-------5p3----------------|
A|----------------5---5----------|----------------5---3----------|
E|-------------------------------|------------------------5---3--|
  word                I'm thinking of,                    have you


G|------- ------- ------- -------|------- ------- ------- -------|
D|-------------------------------|-------------------------------|
A|5---5-------5p3-------------3-4|5---5---3----------------------|
E|----------------5---5----------|----------------5---5---3------|
  heard               the word is "love"?                     It's


G|------- ------- ------- -------|------- ------- ------- -------|
D|------------7------------------|------------5------------------|
A|----4---7----------------------|----2---5----------------------|
E|5------------------------------|3------------------------------|
  so          fine,           it's sun   -    shine,      it's the


G|------- ------- ------- -------|------- ------- ------- -------|
D|-------------------------------|-------------------------------|
A|5-----------5p3-------------3-4|5---5-------5p3----------------|
E|----------------5---5----------|----------------5---5----------|
  word                           "love"

Bridge:
G|------- ------- ------- -------|------- ------- ------- -------|
D|-------------------------------|-------------------------------|
A|5-------5-------5-------5------|3-------3-------3-------3------|
E|-------------------------------|-------------------------------|
      Now   that I know   what I feel must    be  right,


G|------- ------- ------- -------|------- ------- ------- 5------|
D|3-------3-------3-------3------|5-------5-------5---5h7--------|
A|-------------------------------|-------------------------------|
E|-------------------------------|-------------------------------|
      I'm here to show    every - bo- dy  the light       Give the

Verse:
G|------- ------- ------- -------|------- ------- ------- -------|
D|-------------------------------|-------------------------------|
A|5-----------5p3-------------3-4|5---5-------5p3---------3---3--|
E|----------------5---5----------|----------------5---5----------|
  word                a   chance  say                     that the
                              to

G|------- ------- ------- -------|------- ------- ------- -------|
D|-------------------------------|-------------------------------|
A|5---5-------5p3-------------3-4|5---5---3----------------------|
E|----------------5---5----------|----------------5---5---3------|
  word                is  just a  way                     It's the


G|------- ------- ------- -------|------- ------- ------- -------|
D|5---5-------5p3-------------3-4|5---5-------5p3----------------|
A|----------------5---5----------|----------------5---5---3---3--|
E|-------------------------------|-------------------------------|
  word                I'm thinking of,                    and the


G|------- ------- ------- -------|------- ------- ------- -------|
D|-------------------------------|-------------------------------|
A|5---5-------5p3-------------3-4|5---5---3----------------------|
E|----------------5---5----------|----------------5---5---3------|
  on        -         ly  word is "love"                      It's


G|------- ------- ------- -------|------- ------- ------- -------|
D|------------7------------------|------------5------------------|
A|----4---7----------------------|----2---5----------------------|
E|5------------------------------|3------------------------------|
  so          fine,           it's sun   -    shine,      it's the


G|------- ------- ------- -------|------- ------- ------- -------|
D|-------------------------------|-------------------------------|
A|5-----------5p3---------3---3--|5---5-------5p3----------------|
E|----------------5---5----------|----------------5---5-------5--|
  word                           "love"

Bridge (solo):
G|------- ------- ------- -------|------- ------- ------- -------|
D|-------------------------------|-------------------------------|
A|5-------5-------5-------5------|3-------3-------3-------3------|
E|-------------------------------|-------------------------------|



G|------- ------- ------- -------|------- ------- ----5-- ----5--|
D|3-------3-------3-------3------|5-------5-------5h7-----5h7----|
A|-------------------------------|-------------------------------|
E|-------------------------------|-------------------------------|


Verse:
G|------- ------- ------- -------|------- ------- ------- -------|
D|-------------------------------|-------------------------------|
A|5-------5-----3---------3---3--|5-------5-----3---------3---3--|
E|----------------5---5----------|----------------5---5----------|
                                                          say the


G|------- ------- ------- -------|------- ------- ------- -------|
D|-------------------------------|----------------------------3--|
A|5-------5---------------3---3--|5-------5-----------3---5------|
E|--------------5-5---5----------|--------------5-5--------------|
  word                           "love",                  Say the


G|------- ------- ------- -------|------- ------- ----5-- -------|
D|5-------5---------------3---5--|5-------5---3---5h7---7p5-3----|
A|----------------5---5----------|----------------------------5--|
E|-------------------------------|-------------------------------|
  word                           "love",                  say the


G|------- ------- ------- -------|------- ------- ------- -------|
D|-------------------------------|-------------------------------|
A|5---5---5---3-----------3---3--|5---5-------5p3---------3------|
E|----------------5---5----------|----------------5---5-------5--|
  word                           "love",                  Say the


G|------- ------- ------- -------|------- ------- ------- -------|
D|------------7------------------|------------5------------------|
A|----4---7----------------------|----2---5----------------------|
E|5------------------------------|3------------------------------|
  word


G|------- ------- ------- -------|------- ------- ------- -------|
D|-------------------------------|-------------------------------|
A|5-----------5p3---------3---3--|5---5-------5p3----------------|
E|----------------5---5----------|----------------5---5-------5--|
 "love"

Bridge (solo):
G|------- ------- ------- -------|------- ------- ------- -------|
D|-------------------------------|-------------------------------|
A|5-------5-------5-------5------|3-------3-------3-------3------|
E|-------------------------------|-------------------------------|
  fade...

Please e-mail me for any corrections, or write a comment.
Comments