Beatles - The Ballad Of John And Yoko Chords & Tabs

 

The Ballad Of John And Yoko Chords & Tabs

Beatles Chords & Tabs

Version: 2 Type: Tab 0 ratings
1 star 2 stars 3 stars 4 stars 5 stars
comments

The Ballad Of John And Yoko Tab

   
------------------------------------------------------------------------

 THE BEATLES - THE BALLAD OF JOHN & YOKO  (Lennon/ McCartney). 
               Released as a single on 30th May 1969 with OLD BRONW SHOE 
               as B side.

------------------------------------------------------------------------

  Tabbed by:PJVillanueva






            I have always admired John (and always will) for his enormous 
      talent and also for his quick and sharp tongue. He had too, I think,  
      an all but imperialist mind. But when he wrote in the lyrics of this                           
song "you can get married in Gibraltar NEAR Spain", which he had done 
      on March 20th, although not at all in a planned way, he surely didn't 
      realize that Gibraltar could never be near Spain, but just bordering 
      on it the same way as France or Portugal are. 
      Not to talk about the known fact that the english have been constantly
      cheating and using the lowest trickery to steal territory since the 
      Utretch treaty was signed in 1714, so that a great part of what the 
      english consider today a Crown Colony is nothing but some shamelessly 
      invaded spanish soil and it might be said that most of Gibraltar is
      part of Spain -another reason against the idea that it is near Spain.
      
        
 
        
 




Standing in the dock at Southampton,
Trying to get to Holland or France.
The man in the mac said, "You've got to go back".
You know they didn't even give us a chance.
Christ you know it ain't easy,
You know how hard it can be.
The way things are going
They're gonna crucify me.

Finally made the plane into Paris,
Honey mooning down by the Seine.
Peter Brown called to say,
"You can make it O.K.,
You can get married in Gibraltar, near Spain".
Christ you know it ain't easy,
You know how hard it can be.
The way things are going
They're gonna crucify me.

Drove from Paris to the Amsterdam Hilton,
Talking in our beds for a week.
The newspaper said, "Say what you doing in bed?"
I said, "We're only trying to get us some peace".
Christ you know it ain't easy,
You know how hard it can be.
The way things are going
They're gonna crucify me.

Saving up your money for a rainy day,
Giving all your clothes to charity.
Last night the wife said,
"Oh boy, when you're dead
You don't take nothing with you
But your soul - think!"

Made a lightning trip to Vienna,
eating chocolate cake in a bag.
The newspaper said, "She's gone to his head,
They look just like two gurus in drag".
Christ you know it ain't easy,
You know how hard it can be.
The way things are going
They're gonna crucify me.

Caught an early plane back to London.
Fifty acorns tied in a sack.
The men from the press said, "We wish you success,
It's good to have the both of you back".
Christ you know it ain't easy,
You know how hard it can be.
The way things are going
They're gonna crucify me.
The way things are going
They're gonna crucify me.






                                     
  E
e|0---0-- 0---0-- ----0-- 0---0--|0---0-- 0---0-- ----0-- 0---0--|
B|0---0---0---0-------0---0---0--|0---0---0---0-------0---0---0--|
G|1---1---1---1-------1---1---1--|1---1---1---1-------1---1---1--|
D|2---2---2---2-------2---2---2--|2---2---2---2-------2---2---2--|
A|2---2---2---2-------2---2---2--|2---2---2---2-------2---2---2--|
E|0---0---0---0-------0---0---0--|0---0---0---0-------0---0---0--|





e|0---0-- 0---0-- ----0-- 0------|0---0-- 0---0-- ----0-- 0---0--|
B|0---0---0---0-------0---0------|0---0---0---0-------0---0---0--|
G|1---1---1---1-------1---1------|1---1---1---1-------1---1---1--|
D|2---2---2---2-------2---2------|2---2---2---2-------2---2---2--|
A|2---2---2---2-------2---2------|2---2---2---2-------2---2---2--|
E|0---0---0---0-------0---0------|0---0---0---0-------0---0---0--|
  Standing in the dock at Southampton,
e|------- ------- ------- -------|------- ---12-- ------- -------|
B|-------------------------------|----------------14R12----------|
G|-------------------------------|-------------------------------|
D|-------------------------------|-------------------------------|
A|-------------------------------|-------------------------------|
E|-------------------------------|-------------------------------|
  
e|------- ------- ------- -------|------- ------- ------- 14R12--|
B|-------------------------------|-------------------------------|
G|-------------------------------|-------------------------------|
D|-------------------------------|-------------------------------|
A|-------------------------------|-------------------------------|
E|-------------------------------|-------------------------------|





e|0---0-- 0---0-- ----0-- 0------|0---0-- 0---0-- 0---0-- 0------|
B|0---0---0---0-------0---0------|0---0---0---0---0---0---0------|
G|1---1---1---1-------1---1------|1---1---1---1---1---1---1------|
D|2---2---2---2-------2---2------|2---2---2---2---2---2---2------|
A|2---2---2---2-------2---2------|2---2---2---2---2---2---2------|
E|0---0---0---0-------0---0------|0---0---0---0---0---0---0------|
 Trying to get to Holland or France.                           The
e|------- ------- ------- -------|----12- ------- ------- -------|
B|-------------------------------|--------14R12---14R12----------|
G|-------------------------------|-------------------------------|
D|-------------------------------|-------------------------------|
A|-------------------------------|-------------------------------|
E|-------------------------------|-------------------------------|

e|------- ------- ------- -------|------- ------- ------- 14R12--|
B|-------------------------------|-------------------------------|
G|-------------------------------|-------------------------------|
D|-------------------------------|-------------------------------|
A|-------------------------------|-------------------------------|
E|-------------------------------|-------------------------------|




  E7
e|0---0-- 0---0-- ----0-- 0------|----0-- 0---0-- 0------ 0---0--|
B|3---3---3---3-------3---3------|----3---3---3---3-------3---3--|
G|1---1---1---1-------1---1------|----1---1---1---1-------1---1--|
D|2---2---2---2-------2---2------|----2---2---2---2-------2---2--|
A|2---2---2---2-------2---2------|----2---2---2---2-------2---2--|
E|0---0---0---0-------0---0------|----0---0---0---0-------0---0--|
  man in  the mac said,    "You've got to go back".   You know they





e|0---0-- 0---0-- 0---0-- 0---0--|----0-- 0---0-- 0---0-- 0---0--|
B|3---3---3---3---3---3---3---3--|----3---3---3---3---3---3---3--|
G|1---1---1---1---1---1---1---1--|----1---1---1---1---1---1---1--|
D|2---2---2---2---2---2---2---2--|----2---2---2---2---2---2---2--|
A|2---2---2---2---2---2---2---2--|----2---2---2---2---2---2---2--|
E|0---0---0---0---0---0---0---0--|----0---0---0---0---0---0---0--|
  didn't  even    give us a chance.   Christ  you know it ain't easy,




  A
e|0---0-- 0------ 0---0-- 0---0--|0---0-- 0---0-- ----0-- ----0--|
B|2---2---2-------2---2---2---2--|2---2---2---2-------2-------2--|
G|2---2---2-------2---2---2---2--|2---2---2---2-------2-------2--|
D|2---2---2-------2---2---2---2--|2---2---2---2-------2-------2--|
A|0---0---0-------0---0---0---0--|0---0---0---0-------0-------0--|
E|-------------------------------|-------------------------------|
                                      You know how hard it can be.
e|------- ----9-- ----8-- ----7--|5------ ------- ------- -------|
B|-------------------------------|-------------------------------|
G|------------9-------8-------7--|6------------------------------|
D|-------------------------------|-------------------------------|
A|-------------------------------|-------------------------------|
E|-------------------------------|-------------------------------|




  E
e|0---0-- 0---0-- ----0-- 0---0--|0---0-- 0---0-- ----0-- 0---0--|
B|0---0---0---0-------0---0---0--|0---0---0---0-------0---0---0--|
G|1---1---1---1-------1---1---1--|1---1---1---1-------1---1---1--|
D|2---2---2---2-------2---2---2--|2---2---2---2-------2---2---2--|
A|2---2---2---2-------2---2---2--|2---2---2---2-------2---2---2--|
E|0---0---0---0-------0---0---0--|0---0---0---0-------0---0---0--|
                                          The way things are going
e|------- ----4-- ----3-- ----2--|0------ ------- ------- -------|
B|-------------------------------|-------------------------------|
G|------------4-------3-------2--|1------------------------------|
D|-------------------------------|-------------------------------|
A|-------------------------------|-------------------------------|
E|-------------------------------|-------------------------------|

                                             


  B7
e|2---2-- 2---2-- ----2-- 2---2--|2---2-- 2---2-- ----2-- 2------|
B|0---0---0---0-------0---0---0--|0---0---0---0-------0---0------|
G|2---2---2---2-------2---2---2--|2---2---2---2-------2---2------|
D|1---1---1---1-------1---1---1--|1---1---1---1-------1---1------|
A|2---2---2---2-------2---2---2--|2---2---2---2-------2---2------|
E|-------------------------------|-------------------------------|
                                    They're gonna crucify 
e|------- ---11-- ---10-- ----9--|7------ ------- ------- -------|
B|-------------------------------|-------------------------------|
G|-----------11------10-------9--|8------------------------------|
D|-------------------------------|-------------------------------|
A|-------------------------------|-------------------------------|
E|-------------------------------|-------------------------------|
  



  E
e|0---0-- 0---0-- ----0-- ----0--|0---0-- 0---0-- ----0-- 0------|
B|0---0---0---0-------0-------0--|0---0---0---0-------0---0------|
G|1---1---1---1-------1-------1--|1---1---1---1-------1---1------|
D|2---2---2---2-------2-------2--|2---2---2---2-------2---2------|
A|2---2---2---2-------2-------2--|2---2---2---2-------2---2------|
E|0---0---0---0-------0-------0--|0---0---0---0-------0---0------|
  me.
e|------- ----4-- ----3-- ----2--|0---/-- ------- ------- -------|
B|-------------------------------|-------------------------------|
G|------------4-------3-------2--|1---/--------------------------|
D|-------------------------------|-------------------------------|
A|-------------------------------|-------------------------------|
E|-------------------------------|-------------------------------|

e|---12-- 12-12-- 12-12-- 12-12--|12-12-- 12-12-- 12-12-- 12-12--| 
B|---12---12-12---12-12---12-12--|12-12---12-12---12-12---12-12--| 
G|---13---13-13---13-13---13-13--|13-13---13-13---13-13---13-13--| 
D|-------------------------------|-------------------------------|
A|-------------------------------|-------------------------------|
E|-------------------------------|-------------------------------|
                                                         




e|0---0-- 0------ 0---0-- ----0--|0---0-- 0---0-- ----0-- 0---0--|
B|0---0---0-------0---0-------0--|0---0---0---0-------0---0---0--|
G|1---1---1-------1---1-------1--|1---1---1---1-------1---1---1--|
D|2---2---2-------2---2-------2--|2---2---2---2-------2---2---2--|
A|2---2---2-------2---2-------2--|2---2---2---2-------2---2---2--|
E|0---0---0-------0---0-------0--|0---0---0---0-------0---0---0--|
  Finally made the plane into Paris,
e|------- ------- ------- -------|------- ---12-- ------- -------|
B|-------------------------------|----------------14R12----------|
G|-------------------------------|-------------------------------|
D|-------------------------------|-------------------------------|
A|-------------------------------|-------------------------------|
E|-------------------------------|-------------------------------|

e|------- ------- ------- -------|------- ------- ------- 14R12--|
B|-------------------------------|-------------------------------|
G|-------------------------------|-------------------------------|
D|-------------------------------|-------------------------------|
A|-------------------------------|-------------------------------|
E|-------------------------------|-------------------------------|





e|0---0-- 0---0-- ----0-- 0---0--|0---0-- 0---0-- 0---0-- 0------|
B|0---0---0---0-------0---0---0--|0---0---0---0---0---0---0------|
G|1---1---1---1-------1---1---1--|1---1---1---1---1---1---1------|
D|2---2---2---2-------2---2---2--|2---2---2---2---2---2---2------|
A|2---2---2---2-------2---2---2--|2---2---2---2---2---2---2------|
E|0---0---0---0-------0---0---0--|0---0---0---0---0---0---0------|
  Honey   mooning down by the Seine.                  Peter   Brown
e|------- ------- ------- -------|------- ---12-- --R-B-R B-R----|     
B|-------------------------------|----------------141214121412---|
G|-------------------------------|-------------------------------|
D|-------------------------------|-------------------------------|
A|-------------------------------|-------------------------------|
E|-------------------------------|-------------------------------|




  E7
e|0---0-- 0---0-- ----0-- ----0--|0---0-- ------- 0---0-- 0---0--|
B|3---3---3---3-------3-------3--|3---3-----------3---3---3---3--|
G|1---1---1---1-------1-------1--|1---1-----------1---1---1---1--|
D|2---2---2---2-------2-------2--|2---2-----------2---2---2---2--|
A|2---2---2---2-------2-------2--|2---2-----------2---2---2---2--|
E|0---0---0---0-------0-------0--|0---0-----------0---0---0---0--|
    called to say,       "You can make it O.K.,       You can get 
e|------- ------- ------- -------|------- ------- ------- -------|
B|14R12--------------------------|-------------------------------|
G|-------------------------------|-------------------------------|
D|-------------------------------|-------------------------------|
A|-------------------------------|-------------------------------|
E|-------------------------------|-------------------------------|

  



e|0---0-- 0------ 0---0-- 0------|0---0-- 0---0-- 0---0-- 0---0--|
B|3---3---3-------3---3---3------|3---3---3---3---3---3---3---3--|
G|1---1---1-------1---1---1------|1---1---1---1---1---1---1---1--|
D|2---2---2-------2---2---2------|2---2---2---2---2---2---2---2--|
A|2---2---2-------2---2---2------|2---2---2---2---2---2---2---2--|
E|0---0---0-------0---0---0------|0---0---0---0---0---0---0---0--|
  married in  Gibraltar, near Spain". Christ  you know it ain't easy,

  


  A
e|0---0-- 0------ 0---0-- 0------|0------ 0------ ----0-- 0---0--|
B|2---2---2-------2---2---2------|2-------2-----------2---2---2--|
G|2---2---2-------2---2---2------|2-------2-----------2---2---2--|
D|2---2---2-------2---2---2------|2-------2-----------2---2---2--|
A|0---0---0-------0---0---0------|0-------0-----------0---0---0--|
E|-------------------------------|-------------------------------|
                                      You know how hard it can be.
e|------- ----9-- ----8-- ----7--|5------ ------- ------- -------|
B|-------------------------------|-------------------------------|
G|------------9-------8-------7--|6------------------------------|
D|-------------------------------|-------------------------------|
A|-------------------------------|-------------------------------|
E|-------------------------------|-------------------------------|




  E
e|0---0-- 0------ 0---0-- 0---0--|0---0-- 0------ 0---0-- ----0--|
B|0---0---0-------0---0---0---0--|0---0---0-------0---0-------0--|
G|1---1---1-------1---1---1---1--|1---1---1-------1---1-------1--|
D|2---2---2-------2---2---2---2--|2---2---2-------2---2-------2--|
A|2---2---2-------2---2---2---2--|2---2---2-------2---2-------2--|
E|0---0---0-------0---0---0---0--|0---0---0-------0---0-------0--|
                                          The way things are going
e|------- ----4-- ----3-- ----2--|0------ ------- ------- -------|
B|-------------------------------|-------------------------------|
G|------------4-------3-------2--|1------------------------------|
D|-------------------------------|-------------------------------|
A|-------------------------------|-------------------------------|
E|-------------------------------|-------------------------------|

e|------- ------- ---12-- ---12--|---12-- ------- ---12-- -------|
B|-------------------12------12--|---12--------------12----------|
G|-------------------13------13--|---13--------------13----------|
D|-------------------------------|-------------------------------|
A|-------------------------------|-------------------------------|
E|-------------------------------|-------------------------------|

 
                                            

  B7
e|2---2-- 2---2-- ----2-- ----2--|----2-- ------- 2------ 2---2--|
B|0---0---0---0-------0-------0--|----0-----------0-------0---0--|
G|2---2---2---2-------2-------2--|----2-----------2-------2---2--|
D|1---1---1---1-------1-------1--|----1-----------1-------1---1--|
A|2---2---2---2-------2-------2--|----2-----------2-------2---2--|
E|-------------------------------|-------------------------------|
                                    They're gonna crucify 
e|------- ---11-- ---10-- ----9--|7------ ------- ------- -------|
B|-------------------------------|-------------------------------|
G|-----------11------10-------9--|8------------------------------|
D|-------------------------------|-------------------------------|
A|-------------------------------|-------------------------------|
E|-------------------------------|-------------------------------|
  
  


  E
e|0---0-- 0---0-- ----0-- 0---0--|0---0-- 0---0-- ----0-- ----0--|
B|0---0---0---0-------0---0---0--|0---0---0---0-------0-------0--|
G|1---1---1---1-------1---1---1--|1---1---1---1-------1-------1--|
D|2---2---2---2-------2---2---2--|2---2---2---2-------2-------2--|
A|2---2---2---2-------2---2---2--|2---2---2---2-------2-------2--|
E|0---0---0---0-------0---0---0--|0---0---0---0-------0-------0--|
  me.                                                 Drove   from
e|------- ----4-- ----3-- ----2--|0------ ------- ------- -------|
B|-------------------------------|-------------------------------|
G|------------4-------3-------2--|1------------------------------|
D|-------------------------------|-------------------------------|
A|-------------------------------|-------------------------------|
E|-------------------------------|-------------------------------|

e|------- 12-12-- 12-12-- 12-12--|12-12-- 12-12-- 12-12-- 12-12--| 
B|--------12-12---12-12---12-12--|12-12---12-12---12-12---12-12--| 
G|--------13-13---13-13---13-13--|13-13---13-13---13-13---13-13--| 
D|-------------------------------|-------------------------------|
A|-------------------------------|-------------------------------|
E|-------------------------------|-------------------------------|
                                                         




e|0---0-- 0------ 0---0-- 0------|0---0-- 0------ 0---0-- 0------|
B|0---0---0-------0---0---0------|0---0---0-------0---0---0------|
G|1---1---1-------1---1---1------|1---1---1-------1---1---1------|
D|2---2---2-------2---2---2------|2---2---2-------2---2---2------|
A|2---2---2-------2---2---2------|2---2---2-------2---2---2------|
E|0---0---0-------0---0---0------|0---0---0-------0---0---0------|
  Paris   to  the Amsterdam   Hilton,                  
e|------- ------- ------- -------|------- ---12-- -R-B-R- -------|
B|-------------------------------|---------------14121412--------|
G|-------------------------------|-------------------------------|
D|-------------------------------|-------------------------------|
A|-------------------------------|-------------------------------|
E|-------------------------------|-------------------------------|

e|------- ------- ------- -------|------- ------- ------- --B-R--|
B|-------------------------------|------------------------121412-|
G|-------------------------------|-------------------------------|
D|-------------------------------|-------------------------------|
A|-------------------------------|-------------------------------|
E|-------------------------------|-------------------------------|

  



e|0---0-- 0------ 0---0-- ----0--|0---0-- 0------ 0---0-- ----0--|
B|0---0---0-------0---0-------0--|0---0---0-------0---0-------0--|
G|1---1---1-------1---1-------1--|1---1---1-------1---1-------1--|
D|2---2---2-------2---2-------2--|2---2---2-------2---2-------2--|
A|2---2---2-------2---2-------2--|2---2---2-------2---2-------2--|
E|0---0---0-------0---0-------0--|0---0---0-------0---0-------0--|
  Talking in our beds for a week.                             The
e|------- ------- ------- -------|------- ---12-- ----12- --B-R--|
B|-------------------------------|----------------13R12---121412-|
G|-------------------------------|-------------------------------|
D|-------------------------------|-------------------------------|
A|-------------------------------|-------------------------------|
E|-------------------------------|-------------------------------|

  


  E7
e|0---0-- 0------ 0------ 0------|0---0-- 0------ 0------ 0---0--|
B|3---3---3-------3-------3------|3---3---3-------3-------3---3--|
G|1---1---1-------1-------1------|1---1---1-------1-------1---1--|
D|2---2---2-------2-------2------|2---2---2-------2-------2---2--|
A|2---2---2-------2-------2------|2---2---2-------2-------2---2--|
E|0---0---0-------0-------0------|0---0---0-------0-------0---0--|
  newspaper   said,  "Say what you doing  in bed?"    I   said we're
e|--B-R-- ------- ------- -------|------- ------- ------- -------|
B|121412-------------------------|-------------------------------|
G|-------------------------------|-------------------------------|
D|-------------------------------|-------------------------------|
A|-------------------------------|-------------------------------|
E|-------------------------------|-------------------------------|
  




e|0------ 0---0-- 0------ 0---0--|0---0-- 0------ 0---0-- ----0--|
B|3-------3---3---3-------3---3--|3---3---3-------3---3-------3--|
G|1-------1---1---1-------1---1--|1---1---1-------1---1-------1--|
D|2-------2---2---2-------2---2--|2---2---2-------2---2-------2--|
A|2-------2---2---2-------2---2--|2---2---2-------2---2-------2--|
E|0-------0---0---0-------0---0--|0---0---0-------0---0-------0--|
  only  trying to get us some peace". Christ  you know it ain't easy,




  A
e|0------ 0------ ----0-- ----0--|0------ 0------ 0---0-- 0------|
B|2-------2-----------2-------2--|2-------2-------2---2---2------|
G|2-------2-----------2-------2--|2-------2-------2---2---2------|
D|2-------2-----------2-------2--|2-------2-------2---2---2------|
A|0-------0-----------0-------0--|0-------0-------0---0---0------|
E|-------------------------------|-------------------------------|
                                      You know how hard it can be.
e|------- ----9-- ----8-- ----7--|5------ ------- ------- -------|
B|-------------------------------|-------------------------------|
G|------------9-------8-------7--|6------------------------------|
D|-------------------------------|-------------------------------|
A|-------------------------------|-------------------------------|
E|-------------------------------|-------------------------------|




  E
e|0---0-- 0---0-- ----0-- 0---0--|0---0-- 0---0-- ----0-- 0---0--|
B|0---0---0---0-------0---0---0--|0---0---0---0-------0---0---0--|
G|1---1---1---1-------1---1---1--|1---1---1---1-------1---1---1--|
D|2---2---2---2-------2---2---2--|2---2---2---2-------2---2---2--|
A|2---2---2---2-------2---2---2--|2---2---2---2-------2---2---2--|
E|0---0---0---0-------0---0---0--|0---0---0---0-------0---0---0--|
                                          The way things are going
e|------- ----4-- ----3-- ----2--|0------ ------- ------- -------|
B|-------------------------------|-------------------------------|
G|------------4-------3-------2--|1------------------------------|
D|-------------------------------|-------------------------------|
A|-------------------------------|-------------------------------|
E|-------------------------------|-------------------------------|


                                             

  B7
e|2------ 2---2-- ----2-- ----2--|2------ 2---2-- 2---2-- 2------|
B|0-------0---0-------0-------0--|0-------0---0---0---0---0------|
G|2-------2---2-------2-------2--|2-------2---2---2---2---2------|
D|1-------1---1-------1-------1--|1-------1---1---1---1---1------|
A|2-------2---2-------2-------2--|2-------2---2---2---2---2------|
E|-------------------------------|-------------------------------|
                                    They're gonna crucify 
e|------- ---11-- ---10-- ----9--|7------ ------- ------- -------|
B|-------------------------------|-------------------------------|
G|-----------11------10-------9--|8------------------------------|
D|-------------------------------|-------------------------------|
A|-------------------------------|-------------------------------|
E|-------------------------------|-------------------------------|

  

                                      x   x   x   x   x   x   x
  E
e|0---0-- 0---0-- ----0-- 0---0--|----0-- 0---0-- ----0-- 0------|
B|0---0---0---0-------0---0---0--|----0---0---0-------0---0------|
G|1---1---1---1-------1---1---1--|----1---1---1-------1---1------|
D|2---2---2---2-------2---2---2--|----2---2---2-------2---2------|
A|2---2---2---2-------2---2---2--|----2---2---2-------2---2------|
E|0---0---0---0-------0---0---0--|----0---0---0-------0---0------|
  me.
e|------- ----4-- ----3-- ----2--|0------ ------- ------- -------|
B|-------------------------------|-------------------------------|
G|------------4-------3-------2--|1------------------------------|
D|-------------------------------|-------------------------------|
A|-------------------------------|-------------------------------|
E|-------------------------------|-------------------------------|




  A
e|0---0-- 0------ 0---0-- ----0--|0---0-- ----0-- ----0-- 0---0--|
B|2---2---2-------2---2-------2--|2---2-------2-------2---2---2--|
G|2---2---2-------2---2-------2--|2---2-------2-------2---2---2--|
D|2---2---2-------2---2-------2--|2---2-------2-------2---2---2--|
A|0---0---0-------0---0-------0--|0---0-------0-------0---0---0--|
E|-------------------------------|-------------------------------|
  Saving  up your money   for a   rainy       day,
e|---12-- 12----- 12-12-- 12-12--|---12-- 12-12-- ---12-- 12-12--|
B|---14---14------14-14---14-14--|---14---14-14------14---14-14--|
G|---14---14------14-14---14-14--|---14---14-14------14---14-14--|
D|-------------------------------|-------------------------------|
A|-------------------------------|-------------------------------|
E|-------------------------------|-------------------------------|




[ Tab from: http://www.guitartabs.cc/tabs/b/beatles/the_ballad_of_john_and_yoko_tab_ver_2.html ]
e|0---0-- 0---0-- ----0-- 0---0--|0---0-- 0------ 0---0-- ----0--|
B|2---2---2---2-------2---2---2--|2---2---2-------2---2-------2--|
G|2---2---2---2-------2---2---2--|2---2---2-------2---2-------2--|
D|2---2---2---2-------2---2---2--|2---2---2-------2---2-------2--|
A|0---0---0---0-------0---0---0--|0---0---0-------0---0-------0--|
E|-------------------------------|-------------------------------|
 Giving all your clothes to charity.
e|---12-- ------- 12-12-- 12-12--|---12-- ------- 12-12-- ---12--|
B|---14-----------14-14---14-14--|---14-----------14-14------14--|
G|---14-----------14-14---14-14--|---14-----------14-14------14--|
D|-------------------------------|-------------------------------|
A|-------------------------------|-------------------------------|
E|-------------------------------|-------------------------------|





e|0---0-- ----0-- 0------ 0---0--|0---0-- ----0-- ----0-- ----0--|
B|2---2-------2---2-------2---2--|2---2-------2-------2-------2--|
G|2---2-------2---2-------2---2--|2---2-------2-------2-------2--|
D|2---2-------2---2-------2---2--|2---2-------2-------2-------2--|
A|0---0-------0---0-------0---0--|0---0-------0-------0-------0--|
E|-------------------------------|-------------------------------|
  Last night  the wife    said,   "Oh boy,   when you're  dead you
 (Last night  the wife    said,   "Oh boy,   when you're  dead you
e|12-12-- 12-12-- ---12-- 12-12--|12-12-- 12-12-- 12-12-- 12-12--|
B|14-14---14-14------14---14-14--|14-14---14-14---14-14---14-14--|
G|14-14---14-14------14---14-14--|14-14---14-14---14-14---14-14--|
D|-------------------------------|-------------------------------|
A|-------------------------------|-------------------------------|
E|-------------------------------|-------------------------------|





  B7
e|2------ 2------ 2---2-- 2---2--|2------ 2---2-- ----2-- -------|
B|0-------0-------0---0---0---0--|0-------0---0-------0----------|
G|2-------2-------2---2---2---2--|2-------2---2-------2----------|
D|1-------1-------1---1---1---1--|1-------1---1-------1----------|
A|2-------2-------2---2---2---2--|2-------2---2-------2----------|
E|-------------------------------|-------------------------------|
don't take nothing with you But your soul           - think!"
don't take nothing with you But your soul)
e|14-14-- 14-14-- 14-14-- 14-14--|14-14-- 14-14-- 14-14-- -------|
B|16-16---16-16---16-16---16-16--|16-16---16-16---16-16----------|
G|16-16---16-16---16-16---16-16--|16-16---16-16---16-16----------|
D|-------------------------------|-------------------------------|
A|-------------------------------|-------------------------------|
E|-------------------------------|-------------------------------|





      x   x   x
e|------- -------|
B|---------------|
G|---------------|
D|---------------|
A|---------------|
E|---------------|  




  E
e|0---0-- 0------ 0---0-- 0---0--|0---0-- 0------ 0---0-- 0------|
B|0---0---0-------0---0---0---0--|0---0---0-------0---0---0------|
G|1---1---1-------1---1---1---1--|1---1---1-------1---1---1------|
D|2---2---2-------2---2---2---2--|2---2---2-------2---2---2------|
A|2---2---2-------2---2---2---2--|2---2---2-------2---2---2------|
E|0---0---0-------0---0---0---0--|0---0---0-------0---0---0------|
 Made a lightning trip to Vienna,
e|------- ------- ------- -------|------- ---12-- -R-B-R- -------|
B|-------------------------------|---------------14121412--------|
G|-------------------------------|-------------------------------|
D|-------------------------------|-------------------------------|
A|-------------------------------|-------------------------------|
E|-------------------------------|-------------------------------|

e|------- ------- ------- -------|------- ------- ------- --B-R--|
B|-------------------------------|------------------------121412-|
G|-------------------------------|-------------------------------|
D|-------------------------------|-------------------------------|
A|-------------------------------|-------------------------------|
E|-------------------------------|-------------------------------|





e|0---0-- 0---0-- 0---0-- -------|0---0-- 0------ ----0-- ----0--|
B|0---0---0---0---0---0----------|0---0---0-----------0-------0--|
G|1---1---1---1---1---1----------|1---1---1-----------1-------1--|
D|2---2---2---2---2---2----------|2---2---2-----------2-------2--|
A|2---2---2---2---2---2----------|2---2---2-----------2-------2--|
E|0---0---0---0---0---0----------|0---0---0-----------0-------0--|
  eating chocolate cake in a bag.                              The
                            (bag 
e|------- ------- ------- -------|------- ---12-- -----R-B-R-----|
B|-------------------------------|-------------------14121412----|
G|-------------------------------|-------------------------------|
D|-------------------------------|-------------------------------|
A|-------------------------------|-------------------------------|
E|-------------------------------|-------------------------------|
  



  E7
e|0---0-- 0---0-- ----0-- 0------|0---0-- 0------ 0---0-- ----0--|
B|3---3---3---3-------3---3------|3---3---3-------3---3-------3--|
G|1---1---1---1-------1---1------|1---1---1-------1---1-------1--|
D|2---2---2---2-------2---2------|2---2---2-------2---2-------2--|
A|2---2---2---2-------2---2------|2---2---2-------2---2-------2--|
E|0---0---0---0-------0---0------|0---0---0-------0---0-------0--|
 newspaper said,         "She's   gone to his head,
           said                               head                          
e|------- ------- ------- -------|------- ------- ---12-\ -------|
B|14R12--------------------------|-------------------12-\--------|
G|-------------------------------|-------------------13-\--------|
D|-------------------------------|-------------------------------|
A|-------------------------------|-------------------------------|
E|-------------------------------|-------------------------------|



 

e|0---0-- 0---0-- ----0-- ----0--|0---0-- 0---0-- ----0-- 0---0--|
B|3---3---3---3-------3-------3--|3---3---3---3-------3---3---3--|
G|1---1---1---1-------1-------1--|1---1---1---1-------1---1---1--|
D|2---2---2---2-------2-------2--|2---2---2---2-------2---2---2--|
A|2---2---2---2-------2-------2--|2---2---2---2-------2---2---2--|
E|0---0---0---0-------0-------0--|0---0---0---0-------0---0---0--|
 look just like two gurus in drag".   Christ  you know it ain't easy,
                             drag)
  


  A
e|0---0-- 0------ 0---0-- 0---0--|0---0-- 0------ 0---0-- ----0--|
B|2---2---2-------2---2---2---2--|2---2---2-------2---2-------2--|
G|2---2---2-------2---2---2---2--|2---2---2-------2---2-------2--|
D|2---2---2-------2---2---2---2--|2---2---2-------2---2-------2--|
A|0---0---0-------0---0---0---0--|0---0---0-------0---0-------0--|
E|-------------------------------|-------------------------------|
                                      You know how hard it can be.
e|------- ----9-- ----8-- ----7--|5------ ------- ------- -------|
B|-------------------------------|-------------------------------|
G|------------9-------8-------7--|6------------------------------|
D|-------------------------------|-------------------------------|
A|-------------------------------|-------------------------------|
E|-------------------------------|-------------------------------|




  E
e|0---0-- 0------ 0---0-- ----0--|0---0-- 0------ 0---0-- -------|
B|0---0---0-------0---0-------0--|0---0---0-------0---0----------|
G|1---1---1-------1---1-------1--|1---1---1-------1---1----------|
D|2---2---2-------2---2-------2--|2---2---2-------2---2----------|
A|2---2---2-------2---2-------2--|2---2---2-------2---2----------|
E|0---0---0-------0---0-------0--|0---0---0-------0---0----------|
                                          The way things are  going
                                         (The way things are  going
e|------- ----0-- ----2-- ----3--|4/5\4-- ------- ------- -------|
B|-------------------------------|-------------------------------|
G|------------1-------2-------3--|4/5\4--------------------------|
D|-------------------------------|-------------------------------|
A|-------------------------------|-------------------------------|
E|-------------------------------|-------------------------------|


                                             

  B7
e|2---2-- 2------ 2------ 2---2--|2---2-- 2------ 2------ 2---2--|
B|0---0---0-------0-------0---0--|0---0---0-------0-------0---0--|
G|2---2---2-------2-------2---2--|2---2---2-------2-------2---2--|
D|1---1---1-------1-------1---1--|1---1---1-------1-------1---1--|
A|2---2---2-------2-------2---2--|2---2---2-------2-------2---2--|
E|-------------------------------|-------------------------------|
                                    They're gonna crucify 
                                    They're gonna crucify 
e|------- ------- 4------ 3-\-2--|------- ------- ------- -------|
B|-------------------------------|-------------------------------|
G|------------4-------3-----\-2--|-------------------------------|
D|-------------------------------|-------------------------------|
A|-------------------------------|-------------------------------|
E|-------------------------------|-------------------------------|
  



  E
e|0---0-- 0---0-- ----0-- 0---0--|0---0-- 0------ 0---0-- 0------|
B|0---0---0---0-------0---0---0--|0---0---0-------0---0---0------|
G|1---1---1---1-------1---1---1--|1---1---1-------1---1---1------|
D|2---2---2---2-------2---2---2--|2---2---2-------2---2---2------|
A|2---2---2---2-------2---2---2--|2---2---2-------2---2---2------|
E|0---0---0---0-------0---0---0--|0---0---0-------0---0---0------|
  me.
  me
e|------- ------- 12---R-B-R-B-R-B-R----- ------- ------- -------|
B|-----------12B14---1412141214121412----------------------------|
G|-------------------------------|-------------------------------|
D|-------------------------------|-------------------------------|
A|-------------------------------|-------------------------------|
E|-------------------------------|-------------------------------|   

e|------- 12-12-- 12-12-- 12-12--|12-12-- 12-12-- 12-12-- 12-12--| 
B|--------12-12---12-12---12-12--|12-12---12-12---12-12---12-12--| 
G|--------13-13---13-13---13-13--|13-13---13-13---13-13---13-13--| 
D|-------------------------------|-------------------------------|
A|-------------------------------|-------------------------------|
E|-------------------------------|-------------------------------|

                                                     



e|0---0-- 0---0-- ----0-- 0---0--|0---0-- 0---0-- ----0-- 0---0--|
B|0---0---0---0-------0---0---0--|0---0---0---0-------0---0---0--|
G|1---1---1---1-------1---1---1--|1---1---1---1-------1---1---1--|
D|2---2---2---2-------2---2---2--|2---2---2---2-------2---2---2--|
A|2---2---2---2-------2---2---2--|2---2---2---2-------2---2---2--|
E|0---0---0---0-------0---0---0--|0---0---0---0-------0---0---0--|
Caught the early plane back to London.
Caught the early plane back to London
e|------- ------- ------- -------|------- ---12-- -R-B-R-B-R-----|
B|-------------------------------|---------------141214121412----|
G|-------------------------------|-------------------------------|
D|-------------------------------|-------------------------------|
A|-------------------------------|-------------------------------|
E|-------------------------------|-------------------------------|

e|------- ------- ------- -------|------- ------- ---12-- -------|
B|-------------------------------|------------------------14B12--|
G|-------------------------------|-------------------------------|
D|-------------------------------|-------------------------------|
A|-------------------------------|-------------------------------|
E|-------------------------------|-------------------------------|

e|12-12-- 12----- 12-12-- 12-12--|12-12-- 12----- 12-12-- 12-12--| 
B|13-13---12------12-12---12-12--|12-12---12------12-12---12-12--| 
G|13-13---13------13-13---13-13--|13-13---13------13-13---13-13--| 
D|-------------------------------|-------------------------------|
A|-------------------------------|-------------------------------|
E|-------------------------------|-------------------------------|





e|0---0-- 0---0-- ----0-- 0---0--|0---0-- 0---0-- ----0-- 0---0--|
B|0---0---0---0-------0---0---0--|0---0---0---0-------0---0---0--|
G|1---1---1---1-------1---1---1--|1---1---1---1-------1---1---1--|
D|2---2---2---2-------2---2---2--|2---2---2---2-------2---2---2--|
A|2---2---2---2-------2---2---2--|2---2---2---2-------2---2---2--|
E|0---0---0---0-------0---0---0--|0---0---0---0-------0---0---0--|
  Fifty   acorns  tied in a sack.                             The
  Fifty   acorns  tied in a sack.                             The
e|------- ------- ------- -------|------- 12----- --12--- -------|
B|-------------------------------|---12B14-----12B14-------------|
G|-------------------------------|-------------------------------|
D|-------------------------------|-------------------------------|
A|-------------------------------|-------------------------------|
E|-------------------------------|-------------------------------|

e|------- ------- ------- -------|------- ------- ------- -B---R-|
B|-------------------------------|-----------------------12141412|
G|-------------------------------|-------------------------------|
D|-------------------------------|-------------------------------|
A|-------------------------------|-------------------------------|
E|-------------------------------|-------------------------------|

e|12-12-- 12----- 12-12-- 12-12--|12-12-- 12----- 12-12-- 12-12--| 
B|13-13---12------12-12---12-12--|12-12---12------12-12---12-12--| 
G|13-13---13------13-13---13-13--|13-13---13------13-13---13-13--| 
D|-------------------------------|-------------------------------|
A|-------------------------------|-------------------------------|
E|-------------------------------|-------------------------------|

  


  E7
e|0------ 0------ 0------ 0---0--|0------ 0---0-- 0------ 0------|
B|3-------3-------3-------3---3--|3-------3---3---3-------3------|
G|1-------1-------1-------1---1--|1-------1---1---1-------1------|
D|2-------2-------2-------2---2--|2-------2---2---2-------2------|
A|2-------2-------2-------2---2--|2-------2---2---2-------2------|
E|0-------0-------0-------0---0--|0-------0---0---0-------0------|
  men from the press  said,  "We wish you success,
  men from the press  said,  "We wish you success,                             
e|------- ------- ---12-\ -------|------- ------- ---12-\ -------|
B|-------------------12-\--------|-------------------12-\--------|
G|-------------------------------|-------------------------------|
D|-------------------------------|-------------------------------|
A|-------------------------------|-------------------------------|
E|-------------------------------|-------------------------------|

e|---12-- 12----- 12-12-- 12-12--|---12-- 12----- 12-12-- 12-12--| 
B|---13---12------12-12---12-12--|---12---12------12-12---12-12--| 
G|---13---13------13-13---13-13--|---13---13------13-13---13-13--| 
D|-------------------------------|-------------------------------|
A|-------------------------------|-------------------------------|
E|-------------------------------|-------------------------------|



 

e|0---0-- 0------ 0---0-- ----0--|0------ 0---0-- 0---0-- 0------|
B|3---3---3-------3---3-------3--|3-------3---3---3---3---3------|
G|1---1---1-------1---1-------1--|1-------1---1---1---1---1------|
D|2---2---2-------2---2-------2--|2-------2---2---2---2---2------|
A|2---2---2-------2---2-------2--|2-------2---2---2---2---2------|
E|0---0---0-------0---0-------0--|0-------0---0---0---0---0------|
 good to have the both of you back".  Christ  you know it ain't easy,
 good to have the both of you back"           you know it ain't easy, 
e|---12-- 12----- 12-12-- 12-12--|---12-- 12----- 12-12-- 12-12--| 
B|---13---12------12-12---12-12--|---12---12------12-12---12-12--| 
G|---13---13------13-13---13-13--|---13---13------13-13---13-13--| 
D|-------------------------------|-------------------------------|
A|-------------------------------|-------------------------------|
E|-------------------------------|-------------------------------| 




  A
e|0------ 0------ 0---0-- 0---0--|0---0-- 0------ 0---0-- 0------|
B|2-------2-------2---2---2---2--|2---2---2-------2---2---2------|
G|2-------2-------2---2---2---2--|2---2---2-------2---2---2------|
D|2-------2-------2---2---2---2--|2---2---2-------2---2---2------|
A|0-------0-------0---0---0---0--|0---0---0-------0---0---0------|
E|-------------------------------|-------------------------------|
                                      You know how hard it can be.
                                      You know how hard it can be.
e|------- ----9-- ----8-- ----7--|5------ ------- ------- -------|
B|-------------------------------|-------------------------------|
G|------------9-------8-------7--|6------------------------------|
D|-------------------------------|-------------------------------|
A|-------------------------------|-------------------------------|
E|-------------------------------|-------------------------------|
  
e|12-12-- 12-12-- 12-12-- 12-12--|12-12-- 12----- 12-12-- ---12--|
B|14-14---14-14---14-14---14-14--|14-14---14------14-14------14--|
G|14-14---14-14---14-14---14-14--|14-14---14------14-14------14--|
D|-------------------------------|-------------------------------|
A|-------------------------------|-------------------------------|
E|-------------------------------|-------------------------------|




  E
e|0---0-- 0---0-- ----0-- 0---0--|0---0-- 0------ 0---0-- 0------|
B|0---0---0---0-------0---0---0--|0---0---0-------0---0---0------|
G|1---1---1---1-------1---1---1--|1---1---1-------1---1---1------|
D|2---2---2---2-------2---2---2--|2---2---2-------2---2---2------|
A|2---2---2---2-------2---2---2--|2---2---2-------2---2---2------|
E|0---0---0---0-------0---0---0--|0---0---0-------0---0---0------|
                                            The way things are going
                                            The way things are going
e|------- ----0-- ----2-- ----3--|4------ ----0-- ------- -------|
B|-------------------------------|-------------------------------|
G|------------1-------2-------3--|4-----------1------------------|
D|-------------------------------|-------------------------------|
A|-------------------------------|-------------------------------|
E|-------------------------------|-------------------------------|

e|---12-- 12----- 12-12-- 12-12--|---12-- 12----- 12-12-- 12-----| 
B|---13---12------12-12---12-12--|---12---12------12-12---12-----| 
G|---13---13------13-13---13-13--|---13---13------13-13---13-----| 
D|-------------------------------|-------------------------------|
A|-------------------------------|-------------------------------|
E|-------------------------------|-------------------------------|
                                             



  B7
e|2---2-- 2---2-- ----2-- 2------|2---2-- ----2-- 2---2-- 2------|
B|0---0---0---0-------0---0------|0---0-------0---0---0---0------|
G|2---2---2---2-------2---2------|2---2-------2---2---2---2------|
D|1---1---1---1-------1---1------|1---1-------1---1---1---1------|
A|2---2---2---2-------2---2------|2---2-------2---2---2---2------|
E|-------------------------------|-------------------------------|
                                    They're gonna crucify
                                    They're gonna crucify 
e|------- ------- 4------ 3-\-2--|------- ------- ------- -------|
B|-------------------------------|-------------------------------|
G|------------4-------3-----\-2--|-------------------------------|
D|-------------------------------|-------------------------------|
A|-------------------------------|-------------------------------|
E|-------------------------------|-------------------------------|
  
e|---12-- 12-12-- 12-12-- 12-12--|12-12-- 12-12-- 12-12-- 12-----| 
B|---13---12-12---12-12---12-12--|12-12---12-12---12-12---12-----| 
G|---13---13-13---13-13---13-13--|13-13---13-13---13-13---13-----| 
D|-------------------------------|-------------------------------|
A|-------------------------------|-------------------------------|
E|-------------------------------|-------------------------------|




  E
e|0---0-- 0------ 0---0-- ----0--|0---0-- ----0-- 0------ 0---0--|
B|0---0---0-------0---0-------0--|0---0-------0---0-------0---0--|
G|1---1---1-------1---1-------1--|1---1-------1---1-------1---1--|
D|2---2---2-------2---2-------2--|2---2-------2---2-------2---2--|
A|2---2---2-------2---2-------2--|2---2-------2---2-------2---2--|
E|0---0---0-------0---0-------0--|0---0-------0---0-------0---0--|
  me.                                       The way things are going
  me.                                       The way things are going
e|------- ----4-- ----3-- ----2--|0-/---- ------- ------- -------|
B|-------------------------------|-------------------------------|
G|------------4-------3-------2--|1-/----------------------------|
D|-------------------------------|-------------------------------|
A|-------------------------------|-------------------------------|
E|-------------------------------|-------------------------------|

e|---12-- 12----- 12-12-- 12-12--|---12-- 12----- 12-12-- 12-----| 
B|---13---12------12-12---12-12--|---12---12------12-12---12-----| 
G|---13---13------13-13---13-13--|---13---13------13-13---13-----| 
D|-------------------------------|-------------------------------|
A|-------------------------------|-------------------------------|
E|-------------------------------|-------------------------------|




  B7
e|2---2-- ----2-- 2------ 2---2--|2---2-- ----2-- 2------ 2------|
B|0---0-------0---0-------0---0--|0---0-------0---0-------0------|
G|2---2-------2---2-------2---2--|2---2-------2---2-------2------|
D|1---1-------1---1-------1---1--|1---1-------1---1-------1------|
A|2---2-------2---2-------2---2--|2---2-------2---2-------2------|
E|-------------------------------|-------------------------------|
                                    They're gonna crucify 
                                    They're gonna crucify 
e|------- ------- 4----3- --2---2/4------ ------- ------- -------|
B|-------------------------------|-------------------------------|
G|------------4---4----3----2---2/4------------------------------|
D|-------------------------------|-------------------------------|
A|-------------------------------|-------------------------------|
E|-------------------------------|-------------------------------|

e|---12-- 12----- 12-12-- 12-12--|---12-- 12----- 12-12-- 12-12--| 
B|---13---12------12-12---12-12--|---12---12------12-12---12-12--| 
G|---13---13------13-13---13-13--|---13---13------13-13---13-13--| 
D|-------------------------------|-------------------------------|
A|-------------------------------|-------------------------------|
E|-------------------------------|-------------------------------|




  E
e|0---0-- 0---0-- ----0-- ----0--|0------ 0------ ----0-- ----0--|
B|0---0---0---0-------0-------0--|0-------0-----------0-------0--|
G|1---1---1---1-------1-------1--|1-------1-----------1-------1--|
D|2---2---2---2-------2-------2--|2-------2-----------2-------2--|
A|2---2---2---2-------2-------2--|2-------2-----------2-------2--|
E|0---0---0---0-------0-------0--|0-------0-----------0-------0--|
  me.
  me.)                                      
e|------- ------- ------- -------|------- ------- ------- -------|
B|-------------------------------|-------------------------------|
G|-------------------------------|------------------------1---2--|
D|-------------------------------|------------1---2---4----------|
A|-------------------------------|----2---4----------------------|
E|-------------------------------|-------------------------------| 

e|---12-- 12----- 12-12-- 12-12--|12-12-- 12-12-- 12-12-- 12-12--| 
B|---13---12------12-12---12-12--|12-12---12-12---12-12---12-12--| 
G|---13---13------13-13---13-13--|13-13---13-13---13-13---13-13--| 
D|-------------------------------|-------------------------------|
A|-------------------------------|-------------------------------|
E|-------------------------------|-------------------------------|




  B7
e|2------ 2---2-- ----2-- ----2--|----2-- ----2-- 2---2-- ----2--|
B|0-------0---0-------0-------0--|----0-------0---0---0-------0--|
G|2-------2---2-------2-------2--|----2-------2---2---2-------2--|
D|1-------1---1-------1-------1--|----1-------1---1---1-------1--|
A|2-------2---2-------2-------2--|----2-------2---2---2-------2--|
E|-------------------------------|-------------------------------|

e|------- ------- ------- -------|------- ------- ------- -------|
B|4----4----4-----4----4----4----|4----2----2-----2--------------|
G|4----4----4-----4----4----4----|4----2----2-----2----1---------|
D|-------------------------------|--------------------------4----|
A|-------------------------------|-------------------------------|
E|-------------------------------|-------------------------------|

e|11-11-- 11-11-- 11-11-- 11-11--|11-11-- 11-11-- 11-11-- 11-11--|
B|12-12---12-12---12-12---12-12--|12-12---12-12---12-12---12-12--|
G|11-11---11-11---11-11---11-11--|11-11---11-11---11-11---11-11--|
D|-------------------------------|-------------------------------|
A|-------------------------------|-------------------------------|
E|-------------------------------|-------------------------------|
  


                                 (.
  E                               E6
e|0------ 0---0-- ----0-- ----0--|0------ ------- ------- -------|
B|0-------0---0-------0-------0--|2------------------------------|
G|1-------1---1-------1-------1--|1------------------------------|
D|2-------2---2-------2-------2--|2------------------------------|
A|2-------2---2-------2-------2--|2------------------------------|
E|0-------0---0-------0-------0--|0------------------------------|

e|------- ------- ------- -------|0------ ------- ------- -------|
B|-------------------------------|2------------------------------|
G|-------------------------------|1------------------------------|
D|2-------2-----------2----------|2------------------------------|
A|------------4-----------4------|2------------------------------|
E|-------------------------------|0------------------------------|
 
e|------- ------- ------- -------|------- ------- ------- -------|
B|--------12---------12----------|12-----------------------------|
G|13------13-13------13--13------|13-----------------------------|
D|14---------14----------14------|-------------------------------|
A|-------------------------------|-------------------------------|
E|-------------------------------|-------------------------------|









        B  Bend
        R  Release
        /  slide up
        \  slide down
        H  hammer-on
        P  pull-off
        ~  vibrato
        +  harmonic
        x  Mute note
        .   play note like a dot in standard notation
        ^   ties two notes together
        (.  Pause
Comments