Beatles - The Ballad Of John And Yoko Chords & Tabs

 

The Ballad Of John And Yoko Chords & Tabs

Beatles Chords & Tabs

Version: 1 Type: Tab 0 ratings
1 star 2 stars 3 stars 4 stars 5 stars
comments

The Ballad Of John And Yoko Tab

#----------------------------------PLEASE NOTE---------------------------------#
#This file is the author's own work and represents their interpretation of the #
#song. You may only use this file for private study, scholarship, or research. #
#------------------------------------------------------------------------------##

The Ballad of John and Yoko
    (Lennon - McCartney)
 GUITAR TAB



That funny thing which lead guitar plays when vocal stops goes
something like this:

|--3------------
|----3-p1-3-p1--
|---------------
|---------------
|---------------
|---------------

And when the chorus is on, play this:

                                |--8-5-3-1--
                                |----------- (This is not the same 
                                |-----------  but it sounds good on
                                |-----------  its own.)
                                |-----------
                                |-----------
[ Tab from: http://www.guitartabs.cc/tabs/b/beatles/the_ballad_of_john_and_yoko_tab.html ]
                                |--1-0------
                                |------3-1--
                           .    |-----------
                                |-----------
                                |-----------
                                |-----------

                                |--3-1-0----
                                |--------3--
                                |-----------
                                |-----------
                                |-----------
                                |-----------

                                |--1-0------
                                |------3-1--
                        .       |-----------
                                |-----------
                                |-----------
                                |-----------

The ending solo is:

|---------------------------------------------------
|---------------------------------------------------
|---------------0-0-0-0-0-0-0-----------------------
|---------0-2-3---------------3-3-3-2-0-------------
|---0-2-3-------------------------------3-3---3---3-
|-3-----------------------------------------3---3---

or, to play it higher:

|-----------0-1-3-3-3-3-3-3-3-1-1-1-0---------------
|-----0-1-3---------------------------3-1-1---1---1-
|-0-2---------------------------------------0---0---
|---------------------------------------------------
|---------------------------------------------------
|---------------------------------------------------
Comments