Beatles - Tell Me Why Chords & Tabs

 

Tell Me Why Chords & Tabs

Beatles Chords & Tabs

Version: 1 Type: Bass Tab 0 ratings
1 star 2 stars 3 stars 4 stars 5 stars
comments

Tell Me Why Bass Tab

tell me why
the beatles
tabbed by saturns_bassman
 
    this song is pretty much straight through so i hope you enjoy!!
[ Tab from: http://www.guitartabs.cc/tabs/b/beatles/tell_me_why_btab.html ]
|----|----|----|------|7-9-7-6-|4-6-4---|------4-|--4-6---|7-7-4-4-|
|--7-|--7-|--7-|--7-7-|--------|------7-|--------|7-----7-|--------|
|7---|7---|7---|7-----|--------|--------|7-5-7---|--------|--------|
|----|----|----|------|--------|--------|--------|--------|--------|
  
|----|7-9-7-6-|4-6-4---|------4-|--4-6---|7-7-4-4-|----7-|7-7-7-7-|
|--7-|--------|------7-|--------|7-----7-|--------|--7---|--------|
|7---|--------|--------|7-5-7---|--------|--------|7-----|--------|
|----|--------|--------|--------|--------|--------|------|--------|
  
|4-4-4-4-4-|9-9-9-9-9-|----------7-|7-7-7-7-|4-4-4-4-4-|9-9-9-9-9-|
|----------|----------|7-7-7-7-7---|--------|----------|----------|
|----------|----------|------------|--------|----------|----------|
|----------|----------|------------|--------|----------|----------|
 
|----------|7-9-7-6-|4-6-4---|------4-|--4-6---|7-7-4-4-|----|
|7-7-7-7-7-|--------|------7-|--------|7-----7-|--------|--7-|
|----------|--------|--------|7-5-7---|--------|--------|7---|
|----------|--------|--------|--------|--------|--------|----|
  
|7-9-7-6-|4-6-4---|------4-|--4-6---|7-7-4-4-|----7-|7-7-7-7-|
|--------|------7-|--------|7-----7-|--------|--7---|--------|
|--------|--------|7-5-7---|--------|--------|7-----|--------|
|--------|--------|--------|--------|--------|------|--------|
  
|4-4-4-4-4-|9-9-9-9-9-|----------7-|7-7-7-7-|4-4-4-4-4-|9-9-9-9-9-|
|----------|----------|7-7-7-7-7---|--------|----------|----------|
|----------|----------|------------|--------|----------|----------|
|----------|----------|------------|--------|----------|----------|
 
|--------|7-9-7-6-|4-6-4---|------4-|--4-6---|7-7-4-4-|----|
|7-7-7-7-|--------|------7-|--------|7-----7-|--------|--7-|
|--------|--------|--------|7-5-7---|--------|--------|7---|
|--------|--------|--------|--------|--------|--------|----|
 
|7-9-7-6-|4-6-4---|------4-|--4-6---|7-7-7-7-|7-7-|--4-7-4-|
|--------|------7-|--------|7-----7-|--------|----|5-------|
|--------|--------|7-5-7---|--------|--------|----|--------|
|--------|--------|--------|--------|--------|----|--------|
  
|--4-7-4-|--6-9-6-|--6-9-6-|4-4-4-4-|4-4-4-4-|9-4---4-|----4-6-|
|5-------|7-------|7-------|--------|--------|--------|7-7-----|
|--------|--------|--------|--------|--------|----7---|--------|
|--------|--------|--------|--------|--------|--------|--------|
 
|7-4-|----|7-9-7-6-|4-6-4---|------4-|--4-6---|7-7-4-4-|----|
|----|--7-|--------|------7-|--------|7-----7-|--------|--7-|
|----|7---|--------|--------|7-5-7---|--------|--------|7---|
|----|----|--------|--------|--------|--------|--------|----|
 
|7-9-7-6-|4-6-4---|------4-|--4-6---|4-4-3-|3-|----|--||
|--------|------7-|--------|7-----7-|------|--|7-7-|--||
|--------|--------|7-5-7---|--------|------|--|----|5-||
|--------|--------|--------|--------|------|--|----|--||
Comments