Beatles - Taxman Chords & Tabs

 

Taxman Chords & Tabs

Beatles Chords & Tabs

Version: 4 Type: Bass Tab 0 ratings
1 star 2 stars 3 stars 4 stars 5 stars
comments

Taxman Bass Tab

The other tab for the song is right but is missing some parts.  here is the complete tab.

verse
    repeat   then...
E|--77-----7--|-----------7-----------------------
A|-----5h7----|--------5h7------------------------
D|-5----------|------55---------------------------
G|------------|-----------------------------------
[ Tab from: http://www.guitartabs.cc/tabs/b/beatles/taxman_btab_ver_4.html ]
Chorus
E|--55----3--|--55----3-|----------|---77-----7------
A|----3h5----|----3h5---|--55---3--|------5h7--------
D|-3---------|-3--------|----3h5---|--5--------------
G|-----------|----------|-3--------|-----------------

that is the main riff but during one of the verses ("If you drive a...")Paul
throws in this little riff, this is done fast and you should listen for timing.
                                           
                                                x2
E|------5-5--------5-5--------5-5------------------
A|--0-57-7-7\--0-57-7-7\--0-57-7-7\----------------
D|-----------------------------------3333----------
G|-------------------------------------------------

so thats the song, enjoy.

Tabbed by Chris

leroythebassman@hotmail.com
Comments