Beatles - Sun King Chords & Tabs

 

Sun King Chords & Tabs

Beatles Chords & Tabs

Version: 3 Type: Bass Tab 0 ratings
1 star 2 stars 3 stars 4 stars 5 stars
comments

Sun King Bass Tab

SUN KING

INTRO

G|-------------9---9---------------|-------------9-9-9---------------|
D|---------------------------------|---------------------------------|
A|-7-------------------------------|-7-------------------------------|
E|---------------------------------|---------------------------------|

G|-------------9---9---------------|-------------9-9-9---------------|
D|---------------------------------|-----------------------------9---|
A|-7-------------------------------|-7-------------------7---11------|
E|---------------------------------|---------------------------------|

G|-------------9---9---------------|-------------9---9---------------|
D|---------------------------------|-------------------------9\------|
A|-9-------------------------------|-9-------------------------------|
E|---------------------------------|---------------------------------|

G|-------------9---9---------------|-------------9-------------------|
D|---------------------------------|-----------------6---7---9-------|
A|-7-------------------------------|-7---------------------------9---|
E|---------------------------------|---------------------------------|

G|-------------9---9---------------|-------------9---9---------------|
D|---------------------------------|-------------------------9\------|
A|---------------------------------|-9-------------------------------|
E|---------------------------------|---------------------------------|

G|-------------9---9---------------|-------------9-9-9---------------|
D|---------------------------------|---------------------6---7---9---|
A|-7-------------------------------|-7-------------------------------|
E|---------------------------------|---------------------------------|

G|-------------9---9---------------|-------------9-9-9---------------|
D|---------------------------------|-------------------------9\------|
A|-9-------------------------------|-9-------------------------------|
E|---------------------------------|---------------------------------|

G|-------------9---9---------------|-----------------9---------------|
D|---------------------------------|-------------9-----------9-------|
A|-7-------------------------------|-7-------------------------------|
E|---------------------------------|---------------------------------|

G|---------------------------------|---------------------------------|
D|-5-------------------------------|---------------------------------|
A|---------------------------------|---------------------------------|
E|---------------------------------|---------------------------------|

VERSE

G|---------------------------------|---------------------------------|
D|---------------------------------|-----------------------------3---|
A|-3-------------------------------|-3-------------------------------|
E|---------------------------------|---------------------------------|

G|---------------------------------|---------------------------------|
D|-5-------------------------------|-7-------------------------------|
A|---------------------------------|-----------------7-------4---7---|
E|---------------------------------|---------------------5-----------|
[ Tab from: http://www.guitartabs.cc/tabs/b/beatles/sun_king_btab_ver_3.html ]
G|---------------------------------|---------------------------------|
D|---------------------------------|-------------------------2-------|
A|-3-------------------------------|-3-------------------------------|
E|---------------------------------|---------------------------------|

G|---------------------------------|-2-----------2---2---------------|
D|-5-----------5---5-------2-------|---------------------------------|
A|---------------------------------|---------------------------------|
E|---------------------------------|---------------------------------|

G|---------------------------------|---------------------------------|
D|-3-----------3---3---------------|-----------------------------2---|
A|---------------------------------|-5-----------5---5---------------|
E|---------------------------------|---------------------------------|

G|---------------------------------|-------------7-------------------|
D|-3-----------3-------------------|---------------------------------|
A|---------------------------------|-5---------------5---------------|
E|---------------------------------|---------------------------------|

G|---------------------------------|---------------------------------|
D|---------------------------------|-2-----------------------3---5---|
A|-3-----------3---3-------5-------|---------------------------------|
E|---------------------------------|---------------------------------|

G|---------------------5-----------|---------------------------------|
D|-----------------5/7-----7---5---|-3-----------3---3-------5-------|
A|-3-------------------------------|---------------------------------|
E|---------------------------------|---------------------------------|

VERSE

G|---------------------------------|---------9-9-9-9-9---------------|
D|-7-------------------------------|-------------------------9\------|
A|---------------------------------|---------------------------------|
E|---------------------------------|---------------------------------|

G|-------------9---9---------------|-------------------------9-------|
D|---------------------------------|-------------6---7---9-------9---|
A|-7-------------------------------|---------------------------------|
E|---------------------------------|---------------------------------|

G|-------------9---9---------------|---------9-9-9-9---9-------------|
D|---------------------------------|-------------------------9\------|
A|-7-------------------------------|-7-------------------------------|
E|---------------------------------|---------------------------------|

G|-------------9-9-9---------------|-------------9-------------------|
D|---------------------------------|-----------------6---7---9-------|
A|-7-------------------------------|-----------------------------9---|
E|---------------------------------|---------------------------------|

G|-------------9---9---------------|-----9-------9-------9-----------|
D|---------------------------------|-------------------------9\------|
A|-7-------------------------------|-7-------7-------7---------------|
E|---------------------------------|---------------------------------|

G|-------------9-9-9---------------|---------------------------------|
D|-------------------------9\------|---------------------------------|
A|-7-------------------------------|-7-------------------------------|
E|---------------------------------|---------------------------------|
Comments