Beatles - Sun King Chords & Tabs

 

Sun King Chords & Tabs

Beatles Chords & Tabs

Version: 1 Type: Bass Tab 0 ratings
1 star 2 stars 3 stars 4 stars 5 stars
comments

Sun King Bass Tab

Song: Sun King
Artist: Beatles
Album: Abbey Road
Tabbed By: Kenny Borders (kennyborders@hotmail.com)

G-----9-9~~--|-----999~~--|-----9-9~~--|-----999---------|
D------------|------------|------------|---------------9-|
A-7----------|-7----------|-7----------|7--------7-9\11--|
E------------|------------|------------|-----------------|

G-----9-9~~--|-----9-9~~--|-----9-9~~--|-----9------------|
D------------|------------|------------|----------6-7-9---|
A-9----------|-9-------14\|-7----------|-7--------------9-|
E------------|------------|------------|------------------|

G-----9-9~~--|-----9-9~~--|-----9-9~~--|-----999-------|
D------------|------------|------------|---------6-7-9-|
A------------|-9-------14\|-7----------|-7-------------|
E------------|------------|------------|---------------|

G-----9-9~~--|-----999~~--|-----9-9~~--|--------9-----|
D------------|------------|------------|-----9-----9--|
A-9----------|-9-------14\|-7----------|-7------------|
E------------|------------|------------|--------------|

G------------|------------|------------|------------|------------|
D-5----------|------------|------------|-----------2|5-----------|
A------------|------------|-3----------|-3----------|------------|
E------------|------------|------------|------------|------------|
[ Tab from: http://www.guitartabs.cc/tabs/b/beatles/sun_king_btab.html ]
G------------|------------|------------|------------|-------------|
D-7----------|------------|----------2-|-5---5-5----|-7---7-7-----|
A----7\0-4-7-|-3----------|-3----------|----------7-|-------------|
E------------|------------|------------|------------|-------------|

"Everybody's laughing..."
G------------|------------|------------|-------5----|
D------------|------------|------------|------------|
A-8---8-8----|-5---5-5---7|-8---8-8-8--|-5--------5-|
E------------|------------|------------|------------|

G------------|------------|---------5--------|-------------|
D---------0--|-2------3-5-|------5/7---7-5-3-|-----3-3---5-|
A-3---3-3----|------------|-3----------------|-------------|
E------------|------------|------------------|-------------|

Spanish Part
G------------|---999999~--|-----9-9~~--|------------9--|-----9-9~~--|
D-7----------|------------|------------|------6-7-9---9|------------|
A------------|---------14\|-7----------|-7-------------|-9----------|
E------------|------------|------------|---------------|------------|

G---9999-9~--|-----999~~--|-----9--------|-----999~~--|--9--9--9----|
D------------|------------|------6-7-9---|------------|-------------|
A-9-------14\|-7----------|-7----------7-|-9----------|-9--9--9--14\|
E------------|------------|--------------|------------|-------------|

G-----999~~--|------------|
D------------|------------| E
A-7-------14\|7-----------| N
E------------|------------| D
Comments