Beatles - Strawberry Fields Forever Chords & Tabs

 

Strawberry Fields Forever Chords & Tabs

Beatles Chords & Tabs

Version: 3 Type: Tab 0 ratings
1 star 2 stars 3 stars 4 stars 5 stars
comments

Strawberry Fields Forever Tab

Beatles-Strawberry Fields Forever

Tabbed by: daytripper75



Tune guitar to: DADGAD


   
|----------------|---------------|---------------------------0-|-------------|-|
|-12--12--12--12-|-12--12--10----|-------13---------12---10--8-|-------------|-|
|-10--10--10--10-|--8---8---8--7-|----12---------10------------|---7-7-8-7---|-|
|-10--10--10--10-|-10--10---8--7-|-12---------10-------------8-|-----------8-|-|
|----------------|---------------|-----------------------------|-------------|-|
|----------------|---------------|-----------------------------|-8-----------|-|


  
|-------------|--------------------------------|-----0---------3-1-0-|
|-------------|-----1---3----------------------|-----0---------------|
|------5\3--1-|---1---3------------------3---4-|---4-------4---------|
|-3/5--5\3--3-|---3-------------------5--------|-3-------3---0-------|
|-------------|--------------------------------|---------------------|
|-----------3-|-3-3-------3-3-1-1-0-0-0----0---|-0-0---0---0---1-----|


[ Tab from: http://www.guitartabs.cc/tabs/b/beatles/strawberry_fields_forever_tab_ver_3.html ]
|---|-----0-----|-0-----0-------||-----------------|-------------|---------0--|
|-3-|---3-------|-1-1---1---3---||-3---3-3-3---3-3-|-3--3----1---|-------0----|
|---|-4---------|-0---0-0-0-3-3-||---2-------2-----|-2-------0-2-|---3-3------|
|---|-----------|-----------3---||---3-------3-----|-1---------4-|------------|
|---|-----------|-----------1---||-----------------|-------------|------------|
|---|-5-----5-5-|-1-----1-------||---2-------2-----|-3-----3---0-|-5----------|


  
|-------|------------|---------------0-|-----------------|-------------|
|-3---0-|-1-0--------|---1-1-1-0-------|-1-1-1-3---0-0---|---1-1-1-3---|
|---3---|-----0------|---0-----0-0-----|---------3-------|---0-------3-|
|-------|------------|---1-----3---3---|-----------------|---1---------|
|-------|------------|-----------------|-1-----0---------|-------------|
|-------|-1-----1--0-|-1-1-----3-------|-------------5-3-|-1-1-----3---|


 
|---------||-------------| 
|-0---1---||-1-----------| 
|---0-----||---7-7-8-7---| 
|-------1-||-0---------8-| 
|---------||-1-----------| 
|-----1---||-------------|
Comments