Beatles - Something Chords & Tabs

 

Something Chords & Tabs

Beatles Chords & Tabs

Version: 9 Type: Tab 0 ratings
1 star 2 stars 3 stars 4 stars 5 stars
comments

Something Tab

e------------------------------------|
B-------8----------------------------|
G--7/9-----9~--7/9--12(b)--12(b)--9~-|
D------------------------------------|
A------------------------------------|
E------------------------------------|

e----------------------------------------------------|
B-------8h10p8--11/13--13--13--13(b)--15(b)--13------|
G--7/9-------------------------------------------14--|
D----------------------------------------------------|
A----------------------------------------------------|
E----------------------------------------------------|

e-------------------------------|
B-------13--13------------------|
G--/14---------------12--12--2--|
D---------------/14-------------|
A-------------------------------|
E-------------------------------|
[ Tab from: http://www.guitartabs.cc/tabs/b/beatles/something_tab_ver_9.html ]
e-----------------------------------------|
B-----------7--7--(b)10--(b)10--(b)10--8--|
G--4p2--/7--------------------------------|
D-----------------------------------------|
A-----------------------------------------|
E-----------------------------------------|

e------------------------------|
B--8--14\13--12----/17--16\15--|
G------------------------------|
D------------------------------|
A------------------------------|
E------------------------------|

e--------------------------------|
B--------------------------------|
G--7(bend X3)--5--7(bend X3)--5--|
D--------------------------------|
A--------------------------------|
E--------------------------------|

e-------------------------10(b)--10--8h10p8------|
B----------------------8---------------------10--|
G--7(bend X2)--5--7/9----------------------------|
D------------------------------------------------|
A------------------------------------------------|
E------------------------------------------------|

e-------------------------|
B--(b)12--10--11~-12~-13~-|
G-------------------------|
D-------------------------|
A-------------------------|
E-------------------------|
Comments