Beatles - Something Chords & Tabs

 

Something Chords & Tabs

Beatles Chords & Tabs

Version: 5 Type: Bass Tab 0 ratings
1 star 2 stars 3 stars 4 stars 5 stars
comments

Something Bass Tab

     ------------------------------------------------------------

                       THE BEATLES - SOMETHING
                           George Harrison
        From ABBEY ROAD album, released on September 26th 1969

     ------------------------------------------------------------



    INTRO

  G|-------------------------------|-------------------------------|
  D|-------------------------------|-------------------------------|
  A|-------------------------------|----------------6-------5------|
  E|-------------------------------|1------------------------------|



    VERSE

  G|------5-5-5-5-5-5--------------|-------------------------------|
  D|------------------------2---3--|5-----------5H7-5--------------|
  A|3------------------------------|-------------------------------|
  E|-------------------------------|-------------------------------|



  G|----5-5-5-5-5------------------|-------------------------------|
  D|----------------------------2--|3-----------3H5-3-------2------|
  A|3-------------------3---5------|-------------------------------|
  E|-------------------------------|-------------------------------|



  G|------------7-7-7--------------|-------------------------------|
  D|------------------------4---7--|5-5-5/7-7-7-7/9-9--------------|
  A|5-------------------5----------|-------------------------------|
  E|-------------------------------|-------------------------------|



  G|------------9----10-9-7-5------|-------------------------------|
  D|7-------------------------9-7--|5---------6-7------------------|
  A|-------------------------------|----------------5-----------7--|
  E|-------------------------------|-------------------------------|



  G|-------------------------------|
  D|-------------------------------|
  A|8-------8-7-5---6-------5------|
  E|--------------8----------------|



    VERSE

  G|----5-5-5-5-5-5-5---5----------|-------------------------------|
  D|------------------------2---3--|5-----------5H7-5--------------|
  A|3------------------------------|------------------------7---5--|
  E|-------------------------------|-------------------------------|



  G|----5-5-5-5-5-5-5--------------|-------------------------------|
  D|----------------------------2--|3-----------------------2------|
  A|3-------------------3---5------|-------------------------------|
  E|-------------------------------|--------1-1-1---1--------------|



  G|-------------------------------|-------------------------------|
  D|------------4---7--------------|5-5-5-5-7-7-7-7-9---9----------|
  A|5-----------------------5------|-------------------------------|
  E|-------------------------------|-------------------------------|



  G|------------9----10-9-7-5------|-------------------------------|
  D|7---7---------------------9-7--|5-----5---6-7------------------|
  A|-------------------------------|----5-----------5-----------7--|
  E|-------------------------------|-------------------------------|



  G|-------------------------------|--------6---9---6-6-6-6-6-7-8-9|
  D|-------------------------------|7-7-7-7---7---7----------------|
  A|8---------------6-------5------|-------------------------------|
  E|-------------------------------|-------------------------------|



    BRIDGE

  G|-------9H11-9----------9H11-9--|-------9H11-9----------9H11-9--|
  D|7---7-----------6---6----------|-------------------------------|
  A|-------------------------------|9---9-----------7---7----------|
  E|-------------------------------|-------------------------------|


[ Tab from: http://www.guitartabs.cc/tabs/b/beatles/something_btab_ver_5.html ]
  G|-------------------------------|-------------------------------|
  D|--------4---4---5---5---5---6--|-------------------------------|
  A|5---5--------------------------|-------------------------------|
  E|-------------------------------|5-----4-----3-----2-----1---0--|



  G|-------------------------------|-------------------------------|
  D|--------2H4-2-----------2H4-2--|--------2H4-2-----------2H4-2--|
  A|0-0-0--------------------------|-------------------------------|
  E|----------------4---4----------|2---2-----------0---0----------|



  G|-------------------------------|5-----4------------------------|
  D|--------4---4---5---5---5---5--|------------7-----5------------|
  A|5---5--------------------------|------------------------7---5--|
  E|-------------------------------|-------------------------------|



    GUITAR SOLO

  G|----5-5-5-5-5-5-5-5-5----------|-------------------------------|
  D|------------------------2---3--|5-----------5H7-5--------------|
  A|3------------------------------|----------------------------7-5|
  E|-------------------------------|-------------------------------|



  G|--5---5-5-5-5-5-5--------------|-------------------------------|
  D|-------------------------------|------3-3-3-3-------3---2------|
  A|3-------------------3---1-0----|----------------------------3--|
  E|----------------------------3--|1------------------------------|



  G|-------------------------------|-------------------------------|
  D|--------------4-7-----------4--|5-5-5-5-7-7-7-7-9--------------|
  A|5-----------5-------5---7------|-------------------------------|
  E|-------------------------------|-------------------------------|



  G|------------9----10-9-7-5------|------------------------7------|
  D|7---7---------------------9-7-9|5-----5-----6-7----------------|
  A|-------------------------------|----------5-----5---5----------|
  E|-------------------------------|-------------------------------|



  G|-------------------------------|
  D|-------------------------------|
  A|8---------7-5---6-------5------|
  E|--------------8----------------|



    VERSE

  G|--------------------5-5-5-5-5--|----------------5--------------|
  D|------------------------------5|5H7-5---5H7-5-------7---5------|
  A|3/5-3---3---3---3--------------|----------------------------7-5|
  E|-------------------------------|-------------------------------|



  G|----5-5-5-5-5-5-5--------------|-------------------------------|
  D|------------------------5------|3-----------------------2------|
  A|3-------------------7-------7--|-------------------------------|
  E|-------------------------------|------------1-1-1--------------|



  G|------------------7-7---7------|-------------------------------|
  D|--------------4-7-----------4--|5---5-5-7---7-7-9--------------|
  A|5-----------5------------------|-------------------------------|
  E|-------------------------------|-------------------------------|



  G|------------9----10-9-7-5------|-------------------------------|
  D|7---7---------------------9-7-9|7------------------------------|
  A|-------------------------------|----5-----3-4---5-----------7--|
  E|-------------------------------|------5------------------------|



  G|-------------------------------|------------6-6-6-7-7-7-8-8-9-9|
  D|-------------------------------|7-7-7-7-7-7--------------------|
  A|8---------------6-------5------|-------------------------------|
  E|-------------------------------|-------------------------------|



  G|10101010109-7-5-8-------7------|-------------------------------|
  D|-------------------------------|-------------------------------|
  A|-------------------------------|3------------------------------|
  E|-------------------------------|-------------------------------|
Comments