Beatles - Some Other Guy Chords & Tabs

 

Some Other Guy Chords & Tabs

Beatles Chords & Tabs

Version: 1 Type: Tab 0 ratings
1 star 2 stars 3 stars 4 stars 5 stars
comments

Some Other Guy Tab

SOME OTHER GUY

Written by Jerry Leiber, Mike Stoller & Richard Barrett
The Beatles Live At The Cavern Club


INTRO


E|-0-------------------------------|-0-------------------------------|
B|-2-------------------------------|-1-------------------------------|
G|-2-------------------------------|-0-------------------------------|
D|---------------------------------|---------------------------------|
A|---------------------------------|---------------------------------|
E|---------------------------------|---------------------------------|


E|---------------------------------|---------------------------------|
B|---------7-------5---7-------5---|-7-------7-------5---7-----------|
G|---------7-------5---7-------5---|-7-------7-------5---7-----------|
D|---------------------------------|---------------------------------|
A|-5-------------------------------|---------------------------------|
E|---------------------------------|---------------------------------|


E|---------------------------------|---------------------------------|
B|---------7-------5---7-------5---|-7-------7-------5---7-----------|
G|---------7-------5---7-------5---|-7-------7-------5---7-----------|
D|---------------------------------|---------------------------------|
A|-5-------------------------------|---------------------------------|
E|---------------------------------|---------------------------------|


E|---------7-------5---7-------5---|-7-------7-------5---7-----------|
B|---------8-------6---8-------6---|-8-------8-------6---8-----------|
G|---------------------------------|---------------------------------|
D|-5-------------------------------|---------------------------------|
A|---------------------------------|---------------------------------|
E|---------------------------------|---------------------------------|


E|---------------------------------|---------------------------------|
B|---------7-------5---7-------5---|-7-------7-------5---7-----------|
G|---------7-------5---7-------5---|-7-------7-------5---7-----------|
D|---------------------------------|---------------------------------|
A|-5-------------------------------|---------------------------------|
E|---------------------------------|---------------------------------|


E|---------5-------3---5-------3---|-5-------5-------3---5-----------|
B|---------5-------5---5-------5---|-5-------5-------5---5-----------|
G|---------------------------------|---------------------------------|
D|-7-------------------------------|---------------------------------|
A|---------------------------------|---------------------------------|
E|---------------------------------|---------------------------------|


E|---------5-------3---5-------5---|---------5-------3---5-----------|
B|---------5-------5---5-------5---|---------5-------5---5-----------|
G|---------------------------------|---------------------------------|
D|-7-------------------------------|---------------------------------|
A|---------------------------------|---------------------------------|
E|---------------------------------|---------------------------------|


E|---------------------------------|---------------------------------|
B|---------7-------5---7-------5---|-7-------7-------5---7-----------|
G|---------7-------5---7-------5---|-7-------7-------5---7-----------|
D|---------------------------------|---------------------------------|
A|-5-------------------------------|---------------------------------|
E|---------------------------------|---------------------------------|


E|---------------------------------|---------------------------------|
B|---------7-------5---7-------5---|-7-------7-------5---7-----------|
G|---------7-------5---7-------5---|-7-------7-------5---7-----------|
D|---------------------------------|---------------------------------|
A|-5-------------------------------|---------------------------------|
E|---------------------------------|---------------------------------|


VERSE


E|---------------------------------|---------------------------------|
B|---------7-------5---7-------5---|-7-------7-------5---7-----------|
G|---------7-------5---7-------5---|-7-------7-------5---7-----------|
D|---------------------------------|---------------------------------|
A|-5-------------------------------|---------------------------------|
E|---------------------------------|---------------------------------|


E|---------------------------------|---------------------------------|
B|---------7-------5---7-----------|-7-------7-------5---7-----------|
G|---------7-------5---7-----------|-7-------7-------5---7-----------|
D|---------------------------------|---------------------------------|
A|-5-------------------------------|---------------------------------|
E|---------------------------------|---------------------------------|


E|---------7-------5---7-------5---|-7-------7-------5---7-----------|
B|---------8-------6---8-------6---|-8-------8-------6---8-----------|
G|---------------------------------|---------------------------------|
D|-5-------------------------------|---------------------------------|
A|---------------------------------|---------------------------------|
E|---------------------------------|---------------------------------|


E|---------------------------------|---------------------------------|
B|---------7-------5---7-------5---|-7-------7-------5---7-----------|
G|---------7-------5---7-------5---|-7-------7-------5---7-----------|
D|---------------------------------|---------------------------------|
A|-5-------------------------------|---------------------------------|
E|---------------------------------|---------------------------------|


E|---------------------------------|---------------------------------|
B|---------7-------5---7-------5---|-7-------7-------5---7-----------|
G|---------7-------5---7-------5---|-7-------7-------5---7-----------|
D|---------------------------------|---------------------------------|
A|-5-------------------------------|---------------------------------|
E|---------------------------------|---------------------------------|


E|---------------------------------|---------------------------------|
B|---------7-------5---7-------5---|-7-------7-------5---7-----------|
G|---------7-------5---7-------5---|-7-------7-------5---7-----------|
D|---------------------------------|---------------------------------|
A|-5-------------------------------|---------------------------------|
E|---------------------------------|---------------------------------|


E|---------5-------3---5-------3---|-5-------5-------3---5-----------|
B|---------5-------5---5-------5---|-5-------5-------5---5-----------|
G|---------------------------------|---------------------------------|
D|-7-------------------------------|---------------------------------|
A|---------------------------------|---------------------------------|
E|---------------------------------|---------------------------------|


E|---------5-------3---5-----------|-5-------5-------3---------------|
B|---------5-------5---5-----------|-5-------5-------5---------------|
G|---------------------------------|---------------------------------|
D|-7-------------------------------|---------------------------------|
A|---------------------------------|---------------------------------|
E|---------------------------------|---------------------------------|


VERSE


E|---------------------------------|---------------------------------|
B|---------7-------5---7-------5---|-7-------7-------5---7-----------|
G|---------7-------5---7-------5---|-7-------7-------5---7-----------|
D|---------------------------------|---------------------------------|
A|-5-------------------------------|---------------------------------|
E|---------------------------------|---------------------------------|


E|---------------------------------|---------------------------------|
B|---------7-------5---7-------5---|-7-------7-------5---7-----------|
G|---------7-------5---7-------5---|-7-------7-------5---7-----------|
D|---------------------------------|---------------------------------|
A|-5-------------------------------|---------------------------------|
E|---------------------------------|---------------------------------|


E|---------7-------5---7-------5---|-7-------7-------5---7-----------|
B|---------8-------6---8-------6---|-8-------8-------6---8-----------|
G|---------------------------------|---------------------------------|
D|-5-------------------------------|---------------------------------|
A|---------------------------------|---------------------------------|
E|---------------------------------|---------------------------------|


E|---------------------------------|---------------------------------|
B|---------7-------5---7-------5---|-7-------7-------5---7-----------|
G|---------7-------5---7-------5---|-7-------7-------5---7-----------|
D|---------------------------------|---------------------------------|
A|-5-------------------------------|---------------------------------|
E|---------------------------------|---------------------------------|


E|---------------------------------|---------------------------------|
B|---------7-------5---7-------5---|-7-------7-------5---7-----------|
G|---------7-------5---7-------5---|-7-------7-------5---7-----------|
D|---------------------------------|---------------------------------|
A|-5-------------------------------|---------------------------------|
E|---------------------------------|---------------------------------|

[ Tab from: http://www.guitartabs.cc/tabs/b/beatles/some_other_guy_tab.html ]
E|---------------------------------|---------------------------------|
B|---------7-------5---7-------5---|-7-------7-------5---7-----------|
G|---------7-------5---7-------5---|-7-------7-------5---7-----------|
D|---------------------------------|---------------------------------|
A|-5-------------------------------|---------------------------------|
E|---------------------------------|---------------------------------|


E|---------5-------3---5-------3---|-5-------5-------3---5-----------|
B|---------5-------5---5-------5---|-5-------5-------5---5-----------|
G|---------------------------------|---------------------------------|
D|-7-------------------------------|---------------------------------|
A|---------------------------------|---------------------------------|
E|---------------------------------|---------------------------------|


E|---------5-------3---5-----------|---------------------------------|
B|---------5-------5---5-----------|-7-------7-------5---7-----------|
G|---------------------------------|-7-------7-------5---7-----------|
D|-7-------------------------------|---------------------------------|
A|---------------------------------|---------------------------------|
E|---------------------------------|---------------------------------|


E|---------------------------------|---------------------------------|
B|---------7-------5---7-------7---|---------7-------5---7-----------|
G|---------7-------5---7-------7---|---------7-------5---7-----------|
D|---------------------------------|---------------------------------|
A|-5-------------------------------|---------------------------------|
E|---------------------------------|---------------------------------|


E|---------------------------------|---------------------------------|
B|---------7-------5---7-------7---|---------7-------5---7-----------|
G|---------7-------5---7-------7---|---------7-------5---7-----------|
D|---------------------------------|---------------------------------|
A|-5-------------------------------|---------------------------------|
E|---------------------------------|---------------------------------|


GUITAR SOLO


E|---------7-------5---7-------7---|---------7-------5---7-----------|
B|---------8-------6---8-------8---|---------8-------6---8-----------|
G|---------------------------------|---------------------------------|
D|-5-------------------------------|---------------------------------|
A|---------------------------------|---------------------------------|
E|---------------------------------|---------------------------------|


E|---------------------------------|---------------------------------|
B|---------7-------5---7-------5---|-7-------7-------5---7-----------|
G|---------7-------5---7-------5---|-7-------7-------5---7-----------|
D|---------------------------------|---------------------------------|
A|-5-------------------------------|---------------------------------|
E|---------------------------------|---------------------------------|


E|---------5-------3---5-------3---|-5-------5-------3---5-----------|
B|---------5-------5---5-------5---|-5-------5-------5---5-----------|
G|---------------------------------|---------------------------------|
D|-7-------------------------------|---------------------------------|
A|---------------------------------|---------------------------------|
E|---------------------------------|---------------------------------|


E|---------5-------3---5-------3---|-5-------5-------3---5-----------|
B|---------5-------5---5-------5---|-5-------5-------5---5-----------|
G|---------------------------------|---------------------------------|
D|-7-------------------------------|---------------------------------|
A|---------------------------------|---------------------------------|
E|---------------------------------|---------------------------------|


E|---------------------------------|---------------------------------|
B|---------7-------5---7-------5---|---------7-------5---7-----------|
G|---------7-------5---7-------5---|---------7-------5---7-----------|
D|---------------------------------|---------------------------------|
A|-5-------------------------------|---------------------------------|
E|---------------------------------|---------------------------------|


E|---------------------------------|---------------------------------|
B|---------7-------5---7-------5---|---------7-------5---7-----------|
G|---------7-------5---7-------5---|---------7-------5---7-----------|
D|---------------------------------|---------------------------------|
A|-5-------------------------------|---------------------------------|
E|---------------------------------|---------------------------------|


VERSE


E|---------------------------------|---------------------------------|
B|---------7-------5---7-------5---|-7-------7-------5---7-----------|
G|---------7-------5---7-------5---|-7-------7-------5---7-----------|
D|---------------------------------|---------------------------------|
A|-5-------------------------------|---------------------------------|
E|---------------------------------|---------------------------------|


E|---------------------------------|---------------------------------|
B|---------7-------5---7-------5---|-7-------7-------5---7-----------|
G|---------7-------5---7-------5---|-7-------7-------5---7-----------|
D|---------------------------------|---------------------------------|
A|-5-------------------------------|---------------------------------|
E|---------------------------------|---------------------------------|


E|---------7-------5---7-------5---|-7-------7-------5---7-----------|
B|---------8-------6---8-------6---|-8-------8-------6---8-----------|
G|---------------------------------|---------------------------------|
D|-5-------------------------------|---------------------------------|
A|---------------------------------|---------------------------------|
E|---------------------------------|---------------------------------|


E|---------------------------------|---------------------------------|
B|---------7-------5---7-------5---|-7-------7-------5---7-----------|
G|---------7-------5---7-------5---|-7-------7-------5---7-----------|
D|---------------------------------|---------------------------------|
A|-5-------------------------------|---------------------------------|
E|---------------------------------|---------------------------------|


E|---------------------------------|---------------------------------|
B|---------7-------5---7-------5---|-7-------7-------5---7-----------|
G|---------7-------5---7-------5---|-7-------7-------5---7-----------|
D|---------------------------------|---------------------------------|
A|-5-------------------------------|---------------------------------|
E|---------------------------------|---------------------------------|


E|---------------------------------|---------------------------------|
B|---------7-------5---7-------5---|-7-------7-------5---7-----------|
G|---------7-------5---7-------5---|-7-------7-------5---7-----------|
D|---------------------------------|---------------------------------|
A|-5-------------------------------|---------------------------------|
E|---------------------------------|---------------------------------|


E|---------5-------3---5-------3---|-5-------5-------3---5-----------|
B|---------5-------5---5-------5---|-5-------5-------5---5-----------|
G|---------------------------------|---------------------------------|
D|-7-------------------------------|---------------------------------|
A|---------------------------------|---------------------------------|
E|---------------------------------|---------------------------------|


E|---------5-------3---5-----------|---------------------------------|
B|---------5-------5---5-----------|-7-------7-------5---7-------7---|
G|---------------------------------|-7-------7-------5---7-------7---|
D|-7-------------------------------|---------------------------------|
A|---------------------------------|---------------------------------|
E|---------------------------------|---------------------------------|


E|---------------------------------|---------------------------------|
B|---------7-------5---7-------7---|---------7-------5---7-------7---|
G|---------7-------5---7-------7---|---------7-------5---7-------7---|
D|---------------------------------|---------------------------------|
A|---------------------------------|---------------------------------|
E|---------------------------------|---------------------------------|


E|---------------------------------|---------------------------------|
B|---------7-------5---7-------7---|---------7-------5---7-----------|
G|---------7-------5---7-------7---|---------7-------5---7-----------|
D|---------------------------------|---------------------------------|
A|---------------------------------|---------------------------------|
E|---------------------------------|---------------------------------|


E|---------------------------------|---------------------------------|
B|-7-------7-------5---7-------7---|---------7-------5---7-----------|
G|-7-------7-------5---7-------7---|---------7-------5---7-----------|
D|---------------------------------|---------------------------------|
A|---------------------------------|---------------------------------|
E|---------------------------------|---------------------------------|


OUTRO


E|-0-------------------------------|-0-------------------------------|
B|-2-------------------------------|-1-------------------------------|
G|-2-------------------------------|-0-------------------------------|
D|---------------------------------|---------------------------------|
A|---------------------------------|---------------------------------|
E|---------------------------------|---------------------------------|


E|---------------------------------|---------5-----------------------|
B|---------7-------5---7-------5---|---------7-----------------------|
G|---------7-------5---7-------5---|---------7-----------------------|
D|---------------------------------|---------------------------------|
A|-5-------------------------------|---------------------------------|
E|---------------------------------|---------------------------------|
Comments