Beatles - So How Come No One Loves Me Chords & Tabs

 

So How Come No One Loves Me Chords & Tabs

Beatles Chords & Tabs

Version: 2 Type: Bass Tab 0 ratings
1 star 2 stars 3 stars 4 stars 5 stars
comments

So How Come No One Loves Me Bass Tab

SO HOW COME (NO ONE LOVES ME) 

Written by Felix & Boudaloux Bryant

INTRO

  t=147
G|---------------------------------|---------------------------------|
D|-5-------5-------5-------5-------|-5-------------------------------|
A|---------------------------------|---------------------------------|
E|---------------------------------|---------------------------------|

VERSE

G|---------------------------------|---------------------------------|
D|-5-------5-----------------------|-5-------5-----------------------|
A|-----------------------------5---|-----------------5-------5-------|
E|---------------------------------|---------------------------------|

G|---------------------------------|---------------------------------|
D|-5-------5-----------------------|-5-------5-------3-------2-------|
A|-----------------------------5---|---------------------------------|
E|---------------------------------|---------------------------------|

G|---------------------------------|---------------------------------|
D|-----------------7---------------|-----------------7---------------|
A|-5-----------5-----------5-------|-5-----------5-------------------|
E|---------------------------------|---------------------------------|

G|---------------------------------|---------------------------------|
D|-5-------5-------3-------2-------|-5-------------------------------|
A|---------------------------------|---------------------------------|
E|---------------------------------|---------------------------------|

VERSE

G|---------------------------------|---------------------------------|
D|-5-------5-----------------------|-5-------5-----------------------|
A|-------------------------5-------|-----------------5-------5-------|
E|---------------------------------|---------------------------------|

G|---------------------------------|---------------------------------|
D|-5-------------------------------|-5-------5-------3-------2-------|
A|-------------------------5-------|---------------------------------|
E|---------------------------------|---------------------------------|

G|---------------------------------|---------------------------------|
D|-----------------7-------7-------|-----------------7---------------|
A|-5-----------5-------------------|-5-----------5-------------------|
E|---------------------------------|---------------------------------|

G|---------------------------------|---------------------------------|
D|-5-------5-------3-------2-------|-5-------3-------2---------------|
A|---------------------------------|-------------------------5-------|
E|---------------------------------|---------------------------------|

BRIDGE

G|---------------------------------|---------------------------------|
D|-----------------5-------5-------|---------------------------------|
A|-3-----------3-------------------|-3-----------3---5-------5-------|
E|---------------------------------|---------------------------------|

G|---------------------------------|---------------------------------|
D|-5-------5-----------------------|-5-------3-------2---------------|
A|-----------------5-------5-------|-------------------------5-------|
E|---------------------------------|---------------------------------|

G|---------------------------------|---------------------------------|
D|-----------------5---------------|-----------------5---------------|
A|-3-----------3-------------------|-3-----------3-----------3-------|
E|---------------------------------|---------------------------------|

G|---------------------------------|---------------------------------|
D|-----------------7---------------|---------------------------------|
A|-5-------3-----------------------|---------------------------------|
E|---------------------------------|---------------------------------|

VERSE

G|---------------------------------|---------------------------------|
D|-5-------5-----------------------|-5-------5-----------------------|
A|-----------------------------5---|-----------------5-------5-------|
E|---------------------------------|---------------------------------|

G|---------------------------------|---------------------------------|
D|-5-------------------------------|-5-------5-------3-------2-------|
A|-------------------------5-------|---------------------------------|
E|---------------------------------|---------------------------------|

G|---------------------------------|---------------------------------|
D|-----------------7---------------|-----------------7---------------|
A|-5-------5---------------5-------|-5-----------5-------------------|
E|---------------------------------|---------------------------------|
[ Tab from: http://www.guitartabs.cc/tabs/b/beatles/so_how_come_no_one_loves_me_btab_ver_2.html ]
G|---------------------------------|---------------------------------|
D|-5-------5-------3-------2-------|-5-----5-5-----5-5-----5-5-------|
A|---------------------------------|---------------------------------|
E|---------------------------------|---------------------------------|

GUITAR SOLO

G|---------------------------------|---------------------------------|
D|-5-------------------------------|-5-------3-------2---------------|
A|-------------2---5-------2-------|-------------------------5-------|
E|---------------------------------|---------------------------------|

G|---------------------------------|---------------------------------|
D|-5-------3-------2---------------|-5-------5-------3-------2-------|
A|-------------------------5-------|---------------------------------|
E|---------------------------------|---------------------------------|

G|---------------------------------|-------7-7-----7-7-------7-------|
D|-----------------7---------------|---------------------------------|
A|-5-----------5-----------5-------|-5-------------------------------|
E|---------------------------------|---------------------------------|

G|---------------------------------|---------------------------------|
D|-5-------5-------3-------2-------|-5-------3-------2---------------|
A|---------------------------------|-------------------------5-------|
E|---------------------------------|---------------------------------|

BRIDGE

G|---------------------------------|---------------------------------|
D|---------2-------5-------2-------|---------------------------------|
A|-3-------------------------------|-3-------3-------5-------5-------|
E|---------------------------------|---------------------------------|

G|---------------------------------|---------------------------------|
D|-5-------5-----------------------|-5-------3-------2---------------|
A|-----------------5-------5-------|-------------------------5-------|
E|---------------------------------|---------------------------------|

G|---------------------------------|---------------------------------|
D|-----------------5-------5-------|---------------------------------|
A|-3-------3-----------------------|-3-------3-------5-------5-------|
E|---------------------------------|---------------------------------|

G|---------------------------------|---------------------------------|
D|-----------------7---------------|---------------------------------|
A|-5-------3-----------------------|---------------------------------|
E|---------------------------------|---------------------------------|

VERSE

G|---------------------------------|---------------------------------|
D|-5-------5-----------------------|-5-------5-----------------------|
A|-----------------------------5---|-----------------5-------5-------|
E|---------------------------------|---------------------------------|

G|---------------------------------|---------------------------------|
D|-5-------------------------------|-5-------5-------3-------2-------|
A|-----------------------------5---|---------------------------------|
E|---------------------------------|---------------------------------|

G|---------------------------------|---------------------------------|
D|-----------------7-------7-------|-----------------7---------------|
A|-5-------5-----------------------|-5-----------5-------------------|
E|---------------------------------|---------------------------------|

G|---------------------------------|---------------------------------|
D|-5-------5-------3-------2-------|-5-------------------------------|
A|---------------------------------|---------------------------------|
E|---------------------------------|---------------------------------|

OUTRO

G|---------------------------------|---------------------------------|
D|-----------------7----------7----|-----------------7---------------|
A|-5-------5-----------------------|-5-----------5-----------5-------|
E|---------------------------------|---------------------------------|

G|---------------------------------|---------------------------------|
D|-5-------5-------3-------2-------|-5-------------------------------|
A|---------------------------------|---------------------------------|
E|---------------------------------|---------------------------------|

G|---------------------------------|---------------------------------|
D|-----------------7---------------|-----------------7---------------|
A|-5-----------5-----------5-------|-5-----------5-------------------|
E|---------------------------------|---------------------------------|

G|---------------------------------|---------------------------------|
D|-5-------5-------3-------2-------|-5-------2---5-----------5-------|
A|---------------------------------|-----5---------------------------|
E|---------------------------------|---------------------------------|
Comments