Beatles - Slow Down Chords & Tabs

 

Slow Down Chords & Tabs

Beatles Chords & Tabs

Version: 2 Type: Tab 0 ratings
1 star 2 stars 3 stars 4 stars 5 stars
comments

Slow Down Tab

   
----------------------------------PLEASE NOTE---------------------------------#
#This file is the author's own work and represents their interpretation of the #
#song. You may only use this file for private study, scholarship, or research. #
#------------------------------------------------------------------------------#

TAB: Slow Down 
MUSIC BY: Larry Williams (Covered by the Beatles on the 
                          Slow Down/Matchbox single)  
TABBED BY: The Beatles Central Team (jpgr_beatles@yahoo.com) 
              
 
Intro: 

The following two measures will be refered to from now on as Lick1. 
This lick is repeated many times throughout the song. 
 
   C                              
E|---------------------------------|-------------------------------- 
B|---------------------------------|---------8--10---10p8----10p8--- 
G|---------------------------------|-7/9---------------------------- 
D|---------------------------------|-------------------------------- 
A|---------------------------------|-------------------------------- 
E|---------------------------------|-------------------------------- 
   ^       ^       ^       ^         ^       ^       ^       ^ 
 
(Repeat Lick1 3 more times) 
 
   F                                (This is Lick2)                             
E|---------------------------------|-------------------------------- 
B|---------------------------------|---------13--15--15p13---15-12-- 
G|---------------------------------|-12/14----------------------13-- 
D|---------------------------------|-------------------------------- 
A|---------------------------------|-------------------------------- 
E|---------------------------------|-------------------------------- 
   ^       ^       ^       ^         ^       ^       ^       ^ 
 
E|---------------------------------|-------------------------------- 
B|-/13-----------------------------|---------13--15--15p13---15-7--- 
G|-/14-----------------------------|-12/14----------------------8--- 
D|---------------------------------|-------------------------------- 
A|---------------------------------|-------------------------------- 
E|---------------------------------|-------------------------------- 
   ^       ^       ^       ^         ^       ^       ^       ^ 
  C                              
E|---------------------------------|-------------------------------- 
B|-/8------------------------------|---------8--10---10p8----10-7--- 
G|-/9------------------------------|-7/9------------------------8--- 
D|---------------------------------|-------------------------------- 
A|---------------------------------|-------------------------------- 
E|---------------------------------|-------------------------------- 
   ^       ^       ^       ^         ^       ^       ^       ^ 
 
E|---------------------------------|-------------------------------- 
B|-/8------------------------------|---------8--10---10p8----10p8--- 
G|-/9------------------------------|-7/9---------------------------- 
D|---------------------------------|-------------------------------- 
A|---------------------------------|-------------------------------- 
E|---------------------------------|-------------------------------- 
   ^       ^       ^       ^         ^       ^       ^       ^ 
   G                                (This is Lick3) 
E|---------------------------------|-------------------------------- 
B|---------------------------------|---------15--17--17p15---17-12-- 
G|---------------------------------|-14/16----------------------13-- 
D|---------------------------------|-------------------------------- 
A|---------------------------------|-------------------------------- 
E|---------------------------------|-------------------------------- 
   ^       ^       ^       ^         ^       ^       ^       ^ 
   F 
E|---------------------------------|-------------------------------- 
B|-/13-----------------------------|-------------------------------- 
G|-/14-----------------------------|-------------------------------- 
D|---------------------------------|-------------------------------- 
A|---------------------------------|-------------------------------- 
E|---------------------------------|-------------------------------- 
   ^       ^       ^       ^         ^       ^       ^       ^ 
  C                              
 
E|---------------------------------|-------------------------------- 
B|-7/8-----------------------------|---------8--10---10p8----10-7--- 
G|-8/9-----------------------------|-7/9------------------------8--- 
D|---------------------------------|-------------------------------- 
A|---------------------------------|-------------------------------- 
E|---------------------------------|-------------------------------- 
   ^       ^       ^       ^         ^       ^       ^       ^ 
 
E|---------------------------------|-------------------------------- 
B|-/8------------------------------|---------8--10---10p8----10----- 
G|-/9------------------------------|-7/9---------------------------- 
D|---------------------------------|-------------------------------- 
A|---------------------------------|-------------------------------- 
E|---------------------------------|-------------------------------- 
   ^  
[ Tab from: http://www.guitartabs.cc/tabs/b/beatles/slow_down_tab_ver_2.html ]
Solo: 
 
   C                              
E|---------------------------------|-------------------------------- 
B|---------------------------------|-------------------------------- 
G|---------------------------------|-------------------------------- 
D|----------------------1----------|-----------------1---3---------- 
A|-----------------1h3-------------|-3-------3---------------------- 
E|---------3---3-------------------|-------------------------------- 
   ^       ^       ^       ^         ^       ^       ^       ^ 
 
E|---------------------------------|-------------------------------- 
B|---------------------------------|-------------------------------- 
G|---------------------------------|-------------------------------- 
D|-3/5-----5-------5\3--1----------|-----------------1---3---------- 
A|-----------------------------3---|-1h3-----3------------------3--- 
E|---------------------------------|-------------------------------- 
   ^       ^       ^       ^         ^       ^       ^       ^ 
 
E|---------------------------------|-------------------------------- 
B|---------------------------------|-------------------------------- 
G|------3--------------------------|-------------------------------- 
D|-/5----------5\3-----1-----------|-------------------------1--3--- 
A|-----------------------------3---|-1/3-----3---------------------- 
E|---------------------------------|-------------------------------- 
   ^       ^       ^       ^         ^       ^       ^       ^ 
 
E|---------------------------------|-------------------------------- 
B|---------------------------------|-------------------------------- 
G|---------3-----------------------|-----3---------------3---------- 
D|-3/5-------------5\3--1----------|-3/5---------3/5---------3/5---- 
A|---------------------------------|-------------------------------- 
E|---------------------------------|-------------------------------- 
   ^       ^       ^       ^         ^       ^       ^       ^ 
   C                                 F 
E|---------------------------------|-------------------------------- 
B|---------------------------------|-------------------------------- 
G|---------3-----------------------|-------------------------------- 
D|-3/5-------------5\3--1------3---|---------3---------------------- 
A|---------------------------------|-------------------------------- 
E|---------------------------------|-1------------------------------ 
   ^       ^       ^       ^         ^       ^       ^       ^ 
   
E|---------------------------------|-------------------------------- 
B|---------------------------------|-------------------------------- 
G|---------------------------------|----------------------8-----10b(12) 
D|-3b(4)-------3b(4)-------1-------|-----------------8h10----------- 
A|---------------------------------|---------10--------------------- 
E|---------------------------------|-------------------------------- 
   ^       ^       ^       ^         ^       ^       ^       ^ 
                                     C 
E|---------------------------------|-------------------------------- 
B|---------------------------------|-------------------------------- 
G|---------10b(12)-10------8-------|-----------------8---10--------- 
D|-----------------------------10--|---------10--------------------- 
A|---------------------------------|-------------------------------- 
E|---------------------------------|-------------------------------- 
   ^       ^  

E|-----8---------------------------|-------------------------------- 
B|-8-------8-----------------------|-8-------8-----------8-------8-- 
G|-10b(12)-10b(12)-10b(12)p8-------|-10b(12)-10b(12)-----10b(12)-10b(12) 
D|---------------------------------|-------------------------------- 
A|---------------------------------|-------------------------------- 
E|---------------------------------|-------------------------------- 
   ^       ^       ^       ^         ^       ^       ^       ^ 
                                     G 
E|---------------------------------|-------------------------------- 
B|-8-------8-----------------------|---------8---------------------- 
G|-10b(12)-10b(12)-(12)r10-8-------|----------------10/12-12--10/12- 
D|---------------------------------|-------------------------------- 
A|---------------------------------|-------------------------------- 
E|---------------------------------|-------------------------------- 
   ^       ^       ^       ^         ^       ^       ^       ^ 
                                     F 
E|---------------------------------|---------8-----------8---------- 
B|-8-----------8-------------------|---------7-----------6---------- 
G|-----10/12-------10---8/12-------|-------------------------------- 
D|---------------------------------|-------------------------------- 
A|---------------------------------|-------------------------------- 
E|---------------------------------|-------------------------------- 
   ^       ^       ^       ^         ^       ^       ^       ^ 
                                     C 
E|-8-------8---8-------8-----------|---------8---------------8------ 
B|-7-------7---6-------7-----------|---------8---------------8------ 
G|---------------------------------|-----------------(12)r10-------- 
D|---------------------------------|-------------------------------- 
A|---------------------------------|-------------------------------- 
E|---------------------------------|-------------------------------- 
   ^       ^       ^       ^         ^       ^       ^       ^ 
 
E|---------8------------8----------|-------------------------------- 
B|---------8------------8----------|-------------------------------- 
G|-10b(12)---10 10b(12)------------|---------(12)r10-10p8----------- 
D|---------------------------------|---------------------10--8--10-- 
A|---------------------------------|-------------------------------- 
E|---------------------------------|-------------------------------- 
   ^       ^       ^       ^         ^       ^       ^       ^ 
 
                          
E|--------------8------------------| 
B|-8h9-----8-----------------------| 
G|-----------------8---8-----------| 
D|---------------------------------| 
A|---------------------------------| 
E|---------------------------------| 
   ^       ^       ^       ^   

Coda: 
 
   C                              
E|---------------------------------|-------------------------3------ 
B|---------------------------------|-------------------------3------ 
G|---------------------------------|-------------------------3------ 
D|-3---3---1-----------------------|-------------------------2------ 
A|---------------------------------|-----1---2---3-----------3------ 
E|-----------------3-------1-------|-3------------------------------ 
   ^       ^       ^       ^         ^       ^       ^       ^ 
 
----------------------------------------------------------------- 
| Tabbed By the Beatles Central Team (jpgr_beatles@yahoo.com)   | 
| Visit Beatles Central for every major release by The Beatles  | 
| in MIDI and Tab form (over 250 songs), as well as biographies.| 
|    http://members.tripod.com/~jpgr_beatles/index.html         |  
-----------------------------------------------------------------       
 
V


  



Comments