Beatles - Slow Down Chords & Tabs

 

Slow Down Chords & Tabs

Beatles Chords & Tabs

Version: 1 Type: Tab 1 rating
1 star 2 stars 3 stars 4 stars 5 stars
comments

Slow Down Tab

Title:           Slow Down 
Artist:          The Beatles  
~~~~~~~~~~~~~~~~~~~~~~~~~~~~~~~~~~~~~~~~~~~~~~~ 
e---------------------------------------------------------------------------------------
b-----8--10-10p8-10p8---------------------------------13--15--15p13--15-----------------
g-7/9-------------------------------------------12/14----------------------------------- 
d---------------------------------------------------------------------------------------
a---------------------------------------------------------------------------------------
E--------------------------------------------------------------------------------------- 



e--------------------------------------------------------------------------------------- 
b-12/---13----------------13--15--15p13--15--7/---8--------------8--10------------------ 
g-12/---14---------12/14---------------------8/---9---------7/9------------------------- 
d--------------------------------------------------------------------------------------- 
a--------------------------------------------------------------------------------------- 
E--------------------------------------------------------------------------------------- 


 
e------------------------------------------------------------------------------------------- 
b-10p8--10--7/---8---------------8--10--10p8--10p8-----~rest~------------------------------- 
g-----------8/---9----------7/9------------------------------------------------------------- 
d------------------------------------------------------------------------------------------- 
a------------------------------------------------------------------------------------------- 
E------------------------------------------------------------------------------------------- 



e----------------------------------------------------------------------------------------- 
b--------15--17--17p15--17---12/---13--~rest~-----7/---8---------------------------------- 
g-14/16----------------------13/---14-------------8/---9---------------------------------- 
d----------------------------------------------------------------------------------------- 
a----------------------------------------------------------------------------------------- 
E----------------------------------------------------------------------------------------- 

solo:
[ Tab from: http://www.guitartabs.cc/tabs/b/beatles/slow_down_tab.html ]
e---------------------------------------------------------------------------------- 
b---------------------------------------------------------------------------------- 
g---------------------------------------------------------------------3------------ 
d----------1-------------1-3---3/5--5--53--4--------------1--3---3/5-------------- 
a------1h3---------3--3------------------------3--1h3--3--------------------------- 
E-3-3------------------------------------------------------------------------------ 



e------------------------------------------------------------------------------------- 
b------------------------------------------------------------------------------------- 
g--------------------rest-------------3---------------3-------3----------------------- 
d-53--1--------------------1-3--3/5-----53--1---3/5----3/5----3/5------------------- 
a---------3--1h3--3------------------------------------------------------------------- 
e------------------------------------------------------------------------------------- 



e------------------------------------------------------------------------------------ 
b------------------------------------------------------------------------------------ 
g------3--------------------rest-----------------rest------------8---10-------------- 
d-3/5-----53--1--3-----3----------3---3hud--1--------------8h10--------------------- 
a-------------------------------------------------------10--------------------------- 
E--------------------1--------------------------------------------------------------- 



e----------------------------------8--------------------------------------------------------- 
b-------------------------------8------8-----------------8---8---8---8-----------------------
g-10---10--8-----------8--10---10-----10--10hud8--rest--10--10--10--10-----------------------
d-------------10---10------------------------------------------------------------------------
a-------------------------------------------------------------------------------------------- 
E-------------------------------------------------------------------------------------------- 



e-------------------------------------------------------------------------------------------- 
b--8---8------------------------8-------------------8-------8--------------------------------
g-10--10--10hud--8--rest--rest-----10/12--12--10/12---10/12---10-8/10------------------------
d-------------------------------------------------------------------------------------------- 
a--------------------------------------------------------------------------------------------
E-------------------------------------------------------------------------------------------- 

Comments