Beatles - Sgt Pepper's Lonely Hearts Club Band Chords & Tabs

 

Sgt Pepper's Lonely Hearts Club Band Chords & Tabs

Beatles Chords & Tabs

Version: 4 Type: Tab 0 ratings
1 star 2 stars 3 stars 4 stars 5 stars
comments

Sgt Pepper's Lonely Hearts Club Band Tab

   
----------------------------------------------------------------
   THE BEATLES - SGT. PEPPER'S LONELY HEARTS CLUB BAND (REPRISE) 
               (Lennon/McCartney). Released 1st June 1967.
----------------------------------------------------------------
   Tabbed by:PJVillanueva


We're Sergeant Pepper's Lonely Hearts Club Band
We hope you have enjoyed the show
Sergeant Pepper's Lonely Hearts Club Band
We're sorry, but it's time to go

Sergeant Pepper's Lonely, Sergeant Pepper's Lonely,
Sergeant Pepper's Lonely  Sergeant Pepper's Lonely,

Sergeant Pepper's Lonely Hearts Club Band
We'd like to thank you once again
Sergeant Pepper's one and only Lonely Hearts Club Band
It's getting very near the end

Sergeant Pepper's Lonely, Sergeant Pepper's Lonely 
Sergeant Pepper's Lonely Hearts Club Band


  .   .   .   .   .   .   .   .   .   .   .   .   .   .   .   .
e|------- ------- ------- -------|------- ------- ------- -------|
B|-------------------------------|-------------------------------|
G|-------------------------------|-------------------------------|
D|-------------------------------|-------------------------------|
A|-------------------------------|-------------------------------|
E|-------------------------------|-------------------------------|



  X       x       X   X   x       X       x       X   X   x
e|------- ------- ------- -------|------- ------- ------- -------|
B|-------------------------------|-------------------------------|
G|-------------------------------|-------------------------------|
D|-------------------------------|-------------------------------|
A|-------------------------------|-------------------------------|
E|-------------------------------|-------------------------------|



  X       x       X   X   x       X       x       X   X   x
e|------- ------- ------- -------|------- ------- ------- -------|
B|-------------------------------|-------------------------------|
G|-------------------------------|-------------------------------|
D|-------------------------------|-------------------------------|
A|-------------------------------|-------------------------------|
E|-------------------------------|----------------------------7-\|


  E
e|------- 4------ ------- 4------|------- 4------ ------- 4------|
B|--------5---------------5------|--------5---------------5------|
G|--------4---------------4------|--------4---------------4------|
D|-------------------------------|-------------------------------|
A|-------------------------------|-------------------------------|
E|-------------------------------|-------------------------------|

e|------- ------- ------- -------|------- ------- ------- -------|
B|-------------------------------|-------------------------------|
G|-------------------------------|-------------------------------|
D|2---2---------2-2---2---------2|2---2---2-------2---2---------2|
A|-------------------------------|-------------------------------|
E|-------------------------------|-------------------------------|



e|------- 4------ ------- 4------|------- 4------ ------- 4------|
B|--------5---------------5------|--------5---------------5------|
G|--------4---------------4------|--------4---------------4------|
D|-------------------------------|-------------------------------|
A|-------------------------------|-------------------------------|
E|-------------------------------|-------------------------------|
                                                     Wow     We're
e|------- ------- ------- -------|------- ------- ------- -------|
B|-------------------------------|-------------------------------|
G|-------------------------------|-------------------------------|
D|2---2---2-----2-2---2---2-----2|2-----2-2-----2-2---2---2------|
A|-------------------------------|-------------------------------|
E|-------------------------------|-------------------------------|
                                                     

                  G               A                   E
e|0------ ------- 3------ -------|5------ ------- ----0-- -------|
B|0---------------3--------------|5-------------------0----------|
G|1---------------4--------------|6-------------------1----------|
D|2---------------5--------------|7-------------------2----------|
A|2---------------5--------------|7-------------------2----------|
E|0---------------3--------------|5-------------------0----------|
  Sergeant Pepper's Lonely   Hearts Club      Band            We

          A                               E
e|------- 5------ ------- 5------|------- 0------ ------- 0------|
B|--------5---------------5------|--------0---------------0------|
G|--------6---------------6------|--------1---------------1------|
D|--------7---------------7------|--------2---------------2------|
A|--------7---------------7------|--------2---------------2------|
E|--------5---------------5------|--------0---------------0------|
  hope you have enjoyed   the  show
e|------- ------- ------- -------|------- ------- ------- -------|
B|-------------------------------|-------------------------------|
G|-------------------------------|----9-7------------------------|
D|-------------------------------|--------9-7---------5B------5B-|
A|-------------------------------|-------------------------------|
E|-------------------------------|-------------------------------|


 
                          G               A               E
e|------- 0------ ------- 3------|------- 5------ ------- 0------|
B|--------0---------------3------|--------5---------------0------|
G|--------1---------------4------|--------6---------------1------|
D|--------2---------------5------|--------7---------------2------|
A|--------2---------------5------|--------7---------------2------|
E|--------0---------------3------|--------5---------------0------|
  Sergeant Pepper's Lonely   Hearts  Club     Band            We're

          F#                              B
e|------- 2------ ------- 2------|------- 7------ ------- 7------|
B|--------2---------------2------|--------7---------------7------|
G|--------3---------------3------|--------8---------------8------|
D|--------4---------------4------|--------9---------------9------|
A|--------4---------------4------|--------9---------------9------|
E|--------2---------------2------|--------7---------------7------|
  sorry   but it's time   to  go
e|------- ------- ------- -------|------- ------- ------- -------|
B|-------------------------------|-------------------------------|
G|-------------------------------|----14B16-R-14--11-------------|
D|-------------------------------|-------------------------------|
A|-------------------------------|-------------------------------|
E|-------------------------------|-------------------------------|


          A                               E
e|------- 5------ ------- 5------|------- 0------ ------- 0------|
B|--------5---------------5------|--------0---------------0------|
G|--------6---------------6------|--------1---------------1------|
D|--------7---------------7------|--------2---------------2------|
A|--------7---------------7------|--------2---------------2------|
E|--------5---------------5------|--------0---------------0------|
  Sergeant Pepper's Lonely    Sergeant    Pepper's Lonely     Ser..
[ Tab from: http://www.guitartabs.cc/tabs/b/beatles/sgt_peppers_lonely_hearts_club_band_tab_ver_4.html ]
          F#7                             C#
e|------- 2------ ------- 2------|------- 4------ ------- 4------|
B|--------5---------------5------|--------6---------------6------|
G|--------3---------------3------|--------6---------------6------|
D|--------2---------------2------|--------6---------------6------|
A|--------4---------------4------|--------4---------------4------|
E|--------2---------------2------|-------------------------------|
  ...geant Pepper's Lonely    Sergeant    Pepper's Lonely     Ser.. 
e|------- ------- ------- -------|------- ------- ------- -------|
B|-------------------------------|-------------------------------|
G|-------------------------------|6-------6P4H6---6--------------|
D|-------------------------------|-------------------------------|
A|-------------------------------|-------------------------------|
E|-------------------------------|-------------------------------|
  

          F#              A               B               F#
e|------- 6------ ------- 5------|------- 7------ ------- 6------|
B|--------7---------------5------|--------7---------------7------|
G|--------6---------------6------|--------8---------------6------|
D|--------8---------------7------|--------9---------------8------|
A|--------9---------------7------|--------9---------------9------|
E|------------------------5------|--------7----------------------|
  ....geant Pepper's Lonely   Hearts  Club    Band            We'd

          B                               F#
e|------- 7------ ------- 7------|------- 6------ ------- 6------|
B|--------7---------------7------|--------7---------------7------|
G|--------8---------------8------|--------6---------------6------|
D|--------9---------------9------|--------8---------------8------|
A|--------9---------------9------|--------9---------------9------|
E|--------7---------------7------|-------------------------------|
  like to thank you once  again
e|------- ------- ------- -------|------- ------- ------- -------|
B|-------------------------------|-------------------------------|
G|-------------------------------|----9P7-9-----9P7-9-----9P7-9--|   
D|-------------------------------|-------------------------------|
A|-------------------------------|-------------------------------|
E|-------------------------------|-------------------------------|


                          A               B               F#
e|------- 6------ ------- 5------|------- 7------ ------- 6------|
B|--------7---------------5------|--------7---------------7------|
G|--------6---------------6------|--------8---------------6------|
D|--------8---------------7------|--------9---------------8------|
A|--------9---------------7------|--------9---------------9------|
E|------------------------5------|--------7----------------------|
  Sergeant Pepper's one and only Lonely Hearts Club Band      It's

          G#m                                     C#
e|------- 4------ ------- 4------|------- ------- 4------ -------|
B|--------4---------------4------|----------------6--------------|
G|--------4---------------4------|----------------6--------------|
D|--------6---------------6------|----------------6--------------|
A|--------6---------------6------|----------------4--------------|
E|--------4---------------4------|-------------------------------|
  getting very    near    the end
e|------- ------- ------- -------|------- ------- ------- -------|
B|-------------------------------|--14R12B14R12------------------|
G|-------------------------------|-------------13----------------|
D|-------------------------------|-------------------------------|
A|-------------------------------|-------------------------------|
E|-------------------------------|-------------------------------|


          B                               F#
e|------- 7------ ------- 7------|------- 2------ ------- 2------|
B|--------7---------------7------|--------2---------------2------|
G|--------8---------------8------|--------3---------------3------|
D|--------9---------------9------|--------4---------------4------|
A|--------9---------------9------|--------4---------------4------|
E|--------7---------------7------|--------2---------------2------|
  Sergeant Pepper's Lonely    Sergeant    Pepper's Lonely     Ser.. 
 
          G#7                             B
e|------- 4------ ------- 4------|------- 7------ ------- 7------|
B|--------7---------------7------|--------7---------------7------|
G|--------5---------------5------|--------8---------------8------|
D|--------4---------------4------|--------9---------------9------|
A|--------6---------------6------|--------9---------------9------|
E|--------4---------------4------|--------7---------------7------|
  ...geant Pepper's lonely    Hearts         

                                          F#
e|------- 7------ ------- 7------|------- 2------ ------- 2------|
B|--------7---------------7------|--------2---------------2------|
G|--------8---------------8------|--------3---------------3------|
D|--------9---------------9------|--------4---------------4------|
A|--------9---------------9------|--------4---------------4------|
E|--------7---------------7------|--------2---------------2------|
  Club                            Band
e|------- ------- ------- -------|------- ------- ------- -------|
B|-------------------------------|-------------------------------|
G|-------------------------------|-------------------------------|
D|-------------------------------|----------------7--------------|
A|-------------------------------|--------7---9------------------|
E|-------------------------------|----9--------------------------|



          A                               B
e|------- 5------ ------- 5------|------- 7------ ------- 7------|
B|--------5---------------5------|--------7---------------7------|
G|--------6---------------6------|--------8---------------8------|
D|--------7---------------7------|--------9---------------9------|
A|--------7---------------7------|--------9---------------9------|
E|--------5---------------5------|--------7---------------7------|

e|------- ------- ------- -------|------- ------- ------- -------|
B|-------------------------------|-------------------------------|
G|-------------------------------|---14B16--------14B16R14-------|
D|---9-B-11-R-9-B-11-------------|-------------------------------|
A|-------------------------------|-------------------------------|
E|-------------------------------|-------------------------------|

  (.
  F#
e|2------ ------- ------- -------|
B|2------------------------------|
G|3------------------------------|
D|4------------------------------|
A|4------------------------------|
E|2------------------------------|

e|------- ------- ------- -------|
B|17B19--------------------------|
G|-------------------------------|
D|-------------------------------|
A|-------------------------------|
E|-------------------------------|


        B  Bend
        R  Release
        /  slide up
        \  slide down
        H  hammer-on
        P  pull-off
        ~  vibrato
        +  harmonic
        x  Mute note
        . - play note like a dot in standard notation
        ^ - ties two notes together
Comments