Beatles - Sgt Pepper's Lonely Hearts Club Band Chords & Tabs

 

Sgt Pepper's Lonely Hearts Club Band Chords & Tabs

Beatles Chords & Tabs

Version: 3 Type: Tab 0 ratings
1 star 2 stars 3 stars 4 stars 5 stars
comments

Sgt Pepper's Lonely Hearts Club Band Tab

   
    ---------------------------------------------------------

    THE BEATLES - SGT. PEPPER'S LONELY HEARTS CLUB BAND 
                 (Lennon & McCartney) Released 1st June 1967.

    ---------------------------------------------------------

    Tabbed by:PJVillanueva






    It was twenty years ago today,
    Sgt. Pepper told the band to play
    They've been going in and out of style
    But they're guaranteed to raise a smile.
    So may I introduce to you
    The act you've known for all these years,
    Sgt. Pepper's Lonely Hearts Club Band.

    We're Sgt. Pepper's Lonely Hearts Club Band,
    We hope you will enjoy the show,
    Sgt. Pepper's Lonely Hearts Club Band,
    Sit back and let the evening go.

    Sgt. Pepper's lonely, Sgt. Pepper's lonely,
    Sgt. Pepper's Lonely Hearts Club Band.
    It's wonderful to be here,
    It's certainly a thrill.
    You're such a lovely audience,
    We'd like to take you home with us,
    We'd love to take you home.

    I don't really want to stop the show,
    But I thought that you might like to know,
    That the singer's going to sing a song,
    And he wants you all to sing along.
    So let me introduce to you
    The one and only Billy Shears
    And Sgt. Pepper's Lonely Hearts Club Band.





  e|------- ------- ------- -------|------- ------- ------- -------|
  B|-------------------------------|-------------------------------|
  G|-------------------------------|-------------------------------|
  D|-------------------------------|-------------------------------|
  A|-------------------------------|-------------------------------|
  E|-------------------------------|-------------------------------|



    00:12 
    A7                              A7b9                       
  e|------- ------- ------- -------|------- 8------ ------- -------|
  B|------------------------5------|--5----------8----8-----8------|
  G|--------6----6----6---6--------|6------------------------------|
  D|5------------------------------|5------------------------------|
  A|7---7--------------------------|-------------------------------|
  E|5------------------------------|-------------------------------|

  e|------- ------- ------- -------|------- ------- ------- -------|
  B|-----------------8-1010-~------|-----------------8-10-~--------|
  G|----------------9--------------|----------------9--------------|
  D|-------------------------------|-------------------------------|
  A|-------------------------------|-------------------------------|
  E|-------------------------------|-------------------------------|



         
    C7                          G7               X  X   X X   X X
  e|------- ------- ------- ----0--|------- ------- ------- -------|
  B|----------------3B5-3---1---0--|0-------0----------------------|
  G|----3-----------------------0--|0-------0----------------------|
  D|-------------------------------|3-------3----------------------|
  A|3------------------------------|-------------------------------|
  E|-------------------------------|3-------3----------------------|

  e|------- ------8 ----10- -------|------- ------- ------- -------|
  B|---------8-10-----------8\6-8--|-------------------------------|
  G|--------9----------------------|7--\---------------------------|
  D|-------------------------------|-------------------------------|
  A|-------------------------------|-------------------------------|
  E|-------------------------------|-------------------------------|
                                                                It
                                                                  was


    G7            A7                C7            G7
  e|------- ------- ------- -------|------- ------- ------- -------|
  B|--------3----------------------|-------------------------------|
  G|--------4---------------6------|--------3-----4---4-4---4------|
  D|3---3---3---------------5------|2---2---2-----3---3-3---3------|
  A|5---5---------5/7-7-7---7------|3---3---3-----5---5-5---5------|
  E|3---3---------3/5-5-5----------|3---3---3-----3---3-3---3------|
    twenty      today           Sgt Pepper  band  play          they've 
      years                             told    to                been
          ago                             the


  e|------- ------- ------- -------|------- ------- ------- -------|
  B|-------------------------------|--------1---------------3------|
  G|--------4-4-------------6------|--3-----3---------4------------|
  D|3-------3-----5---5-5---5------|2-------2----------------------|
  A|5---5---5-----7---7-7---7------|3-------3----------------------|
  E|3-------3-----5---5-5---5------|--------------1/3-------------3/
    going and   of              but guaranteed  a smile           So
        in  out   style           they're to
                                            raise


  e|------- ------- ------- 5------|------- ------- ------- -------|
  B|--------5---------------5------|-------------------------------|
  G|--------6---------------6------|--------3-----3---3-----3------|
  D|--------5---------------5------|--------2-----2---2-----2------|
  A|7-7-7---7-----7---7---7-7------|3---3---3-----3-3-3-3---3------|
  E|5-5-5---5-----5---5---5-5-----3|3-------3-----3-3-3-3---3------|
    may introduce you             the you've all  years
      I         to                  act known these
                                          for


  e|3------ 3------ 3---3-3 3-3-3--|3---3-3 3---3-3 3---3-3 3-3-3--|
  B|6-------6-------5---5-5-5-5-5--|6---6-6-6---6-6-6---6-6-6-6-6--|
  G|4-------4-------3---3-3-3-3-3--|4---4-4-4---4-4-4---4-4-4-4-4--|
  D|3-------3-------5---5-5-5-5-5--|3---3-3-3---3-3-3---3-3-3-3-3--|
  A|5-------5-------3---3-3-3-3-3--|5---5-5-5---5-5-5---5-5-5-5-5--|
  E|3-------3-------3---3-3-3-3-3--|3---3-3-3---3-3-3---3-3-3-3-3--|
    Sgt     Pepper's     Hearts   Band
                    Lonely   Club


    00:43

  e|3------ 6---5-- 3------ ----3--|1------ 1------ 1------ -------|
  B|5-------------------5-------5--|1---1-----------1--------------|
  G|5-----------------------5---3--|2-------2---3-------2-------3--|
  D|-------------------------------|------------------------3------|
  A|-------------------------------|-------------------------------|
  E|-------------------------------|-------------------------------|





  e|3------ 8---6-- 5------ -------|------- ----5-- 8------ ------5|
  B|5-------5---5---5---8---6---5--|----5---7-------7-----5-7---7--|
  G|5-------5---5---5--------------|7---------------7P6H7---7-7----|
  D|-------------------------------|-------------------------------|
  A|-------------------------------|-------------------------------|
  E|-------------------------------|-------------------------------|





  e|------- ------5 10----- -------|
  B|7-----5-7---7---10-------------|
  G|7P6H7---7-7--------------------|
  D|-------------------------------|
  A|-------------------------------|
  E|-------------------------------|
                                We're


    00:55

  e|------- ------- ------- -------|------- ------- ------- -------|
  B|-------------------------------|-------------------------------|
  G|----------------3---3----------|3---3--------------------------|
  D|5---5-----------3---3----------|2---2-----------5---5----------|
  A|5---5-----------1---1----------|3---3-----------5---5----------|
  E|3---3--------------------------|----------------3---3----------|

  e|------- ------- ------- -------|------- ------- ------- -------|
  B|------------------------6------|--------6---------------6------|
  G|--5B7R5B7R5--------------------|--------4----------------------|
  D|-------------------------------|--------5----------------------|
  A|-------------------------------|-------------------------------|
  E|-------------------------------|-------------------------------|
    Sgt     Pepper's            Hearts  Club    Band            We
                    Lonely



  e|------- ------- ------- -------|------- ------- ------- -------|
  B|-------------------------------|-------------------------------|
  G|3---3-----------3---3----------|-------------------------------|
  D|2---2-----------2---2-------4--|5---5---5---5\4-5---5---5---4--|
  A|3---3-----------3---3-------4--|5---5---5---5\4-5---5---5---4--|
  E|----------------------------2--|3---3---3---3\2-3---3---3---2--|

  e|------- ------- ------- -------|------- ------- ------- -------|
  B|1-------1-------1-------1------|-------------------------------|
  G|3-------3-------3-------3------|4-------4-----4---4-4---4---x--|
  D|2-------2-------2-------2------|3-------3-----3---3-3---3---x--|
  A|3-------3-------3-------3------|5-------5-----5---5-5---5---x--|
  E|-------------------------------|3-------3-----3---3-3---3---x--|
    hope    will            the show
        you     enjoy



  e|------- ------- ------- -------|------- ------- ------- -------|
  B|-------------------------------|-------------------------------|
  G|----------------3---3----------|3---3--------------------------|
  D|5---5-----------3---3----------|2---2-----------5---5---5-5-5--|
  A|5---5-----------1---1----------|3---3-----------5---5---5-5-5--|
  E|3---3--------------------------|----------------3---3---3-3-3--|
[ Tab from: http://www.guitartabs.cc/tabs/b/beatles/sgt_peppers_lonely_hearts_club_band_tab_ver_3.html ]
  e|------- ------- ------- -------|------- ------- ------- -------|
  B|-------B6-R-5------------------|--------------------6----------|
  G|------------------5B7R5B7R5B7--|------------5B7R5-------5------|
  D|-------------------------------|-------------------------------|
  A|-------------------------------|-------------------------------|
  E|-------------------------------|-------------------------------|
    Sgt     Pepper's            Hearts  Club    Band            Sit
                    Lonely



  e|------- ------- ------- -------|------- ------- ------- -------|
  B|-------------------------------|3---1--------------------------|
  G|-------------------------------|----2---2----------------------|
  D|7---7---7-----7-7-----7-7------|------------4---0--------------|
  A|7---7---7-----7-7-----7-7------|-------------------------------|
  E|5---5---5-----5-5-----5-5------|-------------------------------|

  e|------- ------- ------- -------|------- ------- ------- -------|
  B|-------------------------------|3------------------------------|
  G|6-------6-----6---------6------|5------------------------------|
  D|5-------5-----5-5-------5------|4------------------------------|
  A|7-------7-----7-7-7-----7------|5------------------------------|
  E|5-------5-----5-5-5-----5------|-------------------------------|
    back    let the evening     go
        and


    01:16

  e|------- ------- ------- -------|------- ------- ------- -------|
  B|1-------1---1-1-1-------1------|------------------------3------|
  G|3-------3---3-3-3-------3------|--------4---------------4------|
  D|2-------2---2-2-2-------2------|3-------3-----3---------3------|
  A|3-------3---3-3-3-------3------|5-------------5-----5----------|
  E|-------------------------------|3-------------3----------------|
    Sgt     Pepper's            Sgt         Pepper's            Sgt
                    Lonely                          Lonely



  e|------- ------- ------- -------|------- ------- ------- -------|
  B|----------------------------1--|----1-------3-------3---3------|
  G|--------6-------6-----------3--|----3-------4-------4---4------|
  D|----5---5-------5-----------2--|----2-------3-------3---3------|
  A|----7-----------------------3--|----3-------5-------5---5------|
  E|5------------------------------|------------3-------3---3------|
            Pepper's            Hearts  Club    Band            It's
                    Lonely


    01:26

  e|------- ------- ------- -------|------- ------- ------- -------|
  B|1-------1---1---1-------1------|1-------------1----------------|
  G|3-------3---3---3-------3------|2-------2-----2---------2------|
  D|2-------2---2---2-------2------|1-------1---------------1------|
  A|3-------3---3---3-------3------|3-------3---------------3------|
  E|-------------------------------|1-------1---------------1------|

  e|8------ ------- ------- -------|------- ------- ------- -------|
  B|5------------------------------|6------------------------------|
  G|5------------------------------|5------------------------------|
  D|-------------------------------|7------------------------------|
  A|-------------------------------|-------------------------------|
  E|-------------------------------|-------------------------------|
    wonderful   to  be  here    It's            a   thrill      You're
                                    certainly



  e|8------ ------- ------- -------|10----- 10----- ------- -------|
  B|5------------------------------|----10------10------10------10-|
  G|5------------------------------|-7-------7------7-------11-----|
  D|-------------------------------|-----7-------7-------7-------7-|
  A|-------------------------------|----------------5--------9-----|
  E|-------------------------------|-------------------------------|
    such    lovely   audience   We'd    to  take    home    us, We'd
        a                           like        you     with



  e|------- ------- 10----- -------|
  B|------------10-----------------|
  G|7---9---11-------7-------------|
  D|-------------7-----------------|
  A|5---7----9---------------------|
  E|-------------------------------|
    love    take    home      I don't
        to      you


    01:38

  e|------- ------- ------- -------|------- ------- ------- -------|
  B|--------3----------------------|--------1---------------3------|
  G|--------4---------------6------|--------3---------4------------|
  D|3---3---3---------5------------|--------2---------3------------|
  A|5---5---5---------7------------|3---3---3----------------------|
  E|3---3---3-------5--------------|3---3---3-------3--------------|

  e|------- ------- ----5-- 5------|----8-- ------- ----3-- 3------| 
  B|--------3----------------------|-------------------------------|
  G|4-------------/-6--------------/9-------------/-5--------------|
  D|-------------------------------|-------------------------------|
  A|-------------------------------|-------------------------------|
  E|-------------------------------|-------------------------------|
    really  stop  show,         but thought like  know          that
        want    the               I   you       to                the
          to                            might


  e|------- ------- ------- -------|------- ------- ------- -------|
  B|--------3---------------5------|--------1----------------------|
  G|--------4---------6------------|----3---3---------------4------|
  D|--------3-------5--------------|--------2---------3------------|
  A|3-/-5---5---5---7--------------|3-----------------5------------|
  E|--------3-------5--------------|----------------3--------------|

  e|----3-- ------- ----5-- 5------|----8-- ------- ----3-- 3---3--| 
  B|-------------------------------|-------------------------------|
  G/4-------------/-6--------------/9-------------/-5--------------|
  D|-------------------------------|-------------------------------|
  A|-------------------------------|-------------------------------|
  E|-------------------------------|-------------------------------|
    singer's sing song          and wants to    along            So
        going   a                 he  you   sing
          to                            all


  e|------- ------- ------- -------|------- ------- ------- -------|
  B|-------------------------------|--------1---1-----------1------|
  G|--------4---------------4------|--------3---3-----------3------|
  D|--------5---5-----------5------|--------2---2-----------2------|
  A|------7-7---7-----------7------|3---3-3-3---3---3---3-3-3------|
  E|5-------------5---------5------|-------------------------------|

  e|------- 5------ ------5 5------|------- 8------ 6---8-- 8---10-|  
  B|-------------------------------|-------------------------------|
  G|----------------4-/-6----------/9------------------------------|
  D|-------------------------------|-------------------------------|
  A|-------------------------------|-------------------------------|
  E|-------------------------------|-------------------------------|
    let introduce you             the and   Billy                 and
      me        to                  one only    Shears



  e|------- ------- ------- -------|------- ------- ------- -------|
  B|-------------------------------|-------------------------------|
  G|4-------4-------3-----3---3----|4-------4-------4--------------|
  D|3-------3-------2-----2---2----|3-------3-------3--------------|
  A|5-------5-------3-----3---3----|5-------5-------5--------------|
  E|3-------3----------------------|3-------3-------3--------------|

  e|10--10- 10----- ------- -------|------- ------- ------- -------| 
  B|--------------------8---8------|8-------8P6--------------------|
  G|-------------------------------|------------7---7---------x----|
  D|-------------------------------|-------------------------------|
  A|-------------------------------|-------------------------------|
  E|-------------------------------|-------------------------------|
    Sgt     Pepper's      Hearts  Band
                    Lonely    Club

   (.
 
  e|8------ ------- ------- -------|------- ------- ------- -------|
  B|5------------------------------|-------------------------------|
  G|5------------------------------|-------------------------------|
  D|5------------------------------|-------------------------------|
  A|-------------------------------|-------------------------------|
  E|-------------------------------|-------------------------------| 

  e|------- ------- ------- -------|------- ------- ------- -------|
  B|-------------------------------|-------------------------------|
  G|-------------------------------|-------------------------------|
  D|3------------------------------|3------------------------------|
  A|--------6-------5-------3------|--------6-------5-------3------|
  E|-------------------------------|-------------------------------| ...



        As you all know, this ending is linked to "WITH A LITTLE 
        HELP FROM MY FRIENDS" by a small passage. You can find it 
        in the other tab.






        B  Bend
        R  Release
        /  Slide up
        \  Slide down
        H  Hammer-on
        P  Pull-off
        ~  Vibrato
        +  Harmonic
        x  Mute note
        .  Play note like a dot in standard notation
        ^  Ties two notes together
        (. Pause



Comments