Beatles - Sgt Pepper's Lonely Hearts Club Band Chords & Tabs

 

Sgt Pepper's Lonely Hearts Club Band Chords & Tabs

Beatles Chords & Tabs

Version: 1 Type: Tab 1 rating
1 star 2 stars 3 stars 4 stars 5 stars
comments

Sgt Pepper's Lonely Hearts Club Band Tab

   
----------------------------------PLEASE NOTE---------------------------------#
#This file is the author's own work and represents their interpretation of the #
#song. You may only use this file for private study, scholarship, or research. #
#------------------------------------------------------------------------------#

Sgt Pepper's Lonely Hearts Club Band - by The Beatles 
      -------------- 
      Tabbed by Frederic Maquet 
 
There is another version at OLGA, but it's not very complete. 
So I decided to tab it.  There are lots of additional bits 
for the solo lead guitar, but it would take too long to figure 
them out, so just mess around a G blues scale or something... 
 
For more Exclusive Guitar Tabs go to: 
http://www.geocities.com/SunsetStrip/3224/guitar.html 
 
Email me comments/suggestions/corrections at f.maquet@ic.ac.uk!! 
 
 
Intro: 
------ 
  Guitar 1: 
    A 
e:-------------------5~-5------------------5~-| 
B:-------------5h8---5~-5-------------5h8--5~-| 
G:--------------------------------------------| 
D:--7--7--7---------------7--7--7-------------| 
A:--7--7--7---------------7--7--7-------------| 
E:--5--5--5---------------5--5--5-------------| 
  Guitar 2: 
e:-----------------------------8---5----------| 
B:------------------------5h8--8---5----------| 
G:--------------------------------------------| 
D:--------------------------------------------| 
A:--------------------------------------------| 
E:--------------------------------------------| 
 
Guitar 1: 
   C7                      G 
e:----------5--8b10---------------| 
B:-----5h8----------8p6h8---------|
G:-------------------------7------| 
D:--8--------------------------5//| 
A:--10-------------------------5//| 
E:--8--------------------------3//| 
Guitar 2: 
e:--------------------------------| 
B:--------------------------------| 
G:------7b8--7---5h7--------------| 
D:--7b----------------------7-----| 
A:--------------------------------| 
E:--------------------------------| 

Chords: (mostly barre chords!) 
-------        Sounds cool: 
G  355433 
A7  575655    or  545xxx 
C7  8 10 8 9 8 8 or   878xxx    x35353 
Bb7  686766    or  656xxx 
E7  020100    or  12 14 12 13 12 12 
D7  x57575    or  10 12 10 11 10 10 
 
 
 
Thanks to Aaron Rosenblum (rosenblm@maybaum.med.umich.edu ) for typing 
in the original chords and lyrics on the previous post. 


#----------------------------------PLEASE NOTE---------------------------------#
#This file is the author's own work and represents their interpretation of the #
#song. You may only use this file for private study, scholarship, or research. #
#------------------------------------------------------------------------------#

[ Tab from: http://www.guitartabs.cc/tabs/b/beatles/sgt_peppers_lonely_hearts_club_band_tab.html ]
Sgt. Pepper's Lonely Heart's 
                      Club Band (Reprise)  
 
by Lennon/McCartney 
from SPLHCB 
 
Intro: 
 
4 Bars of drums, then: 
 
|F      |       |       |       |         ---- The F is shaped like  
                                               this: X-8-10-10-10-X 
 
      F                 Ab                    
We're Sergeant Pepper's Lonely Heart's 
Bb       F       Bb                           
Club Band     We hope you will enjoy the show 
 
Fill: 
   
  F                             
-|---------------------------- 
-|---------------------------- 
-|--10--8--------------------- 
-|---------10p9--8-----6------ 
-|---------------------------- 
-|---------------------------- 

Fill: 
   
  C                            
-|---------------------------- 
-|--11b13r11-----8------------ 
-|---------------------------- 
-|---------------------------- 
-|---------------------------- 
-|---------------------------- 


Fill: 
 
  G                            
-|---------------------------- 
-|--8p6--8---8p6--8---8p6--8-- 
-|---------------------------- 
-|---------------------------- 
-|---------------------------- 
-|---------------------------- 
 
 
Fill: 
 
  G                            
-|--10r8--10r8---5------------ 
-|---------------------------- 
-|---------------------------- 
-|---------------------------- 
-|---------------------------- 
-|---------------------------- 
  
 
C 
Sergeant Pepper's Lonely  Ser- 
G 
geant Pepper's Lonely Ser-  
A 
geant Pepper's Lonely  
         C 
Heart's_____   Club_____ 
G 
Band____ 
 
  
End lick: 
 
  G                            Bb 
-|----------------------------|------------------------------                            
-|----------------------------|-----------3------6----------- 
-|-----------------3----------|-----5b7---------------------- 
-|-----3---5---3--------------|------------------------------ 
-|----------------------------|------------------------------ 
-|----------------------------|------------------------------ 
  C                            G 
-|-----6b8r6---6b8b6---3------|--13b15------------------------                            
-|----------------------------|------------------------------ 
-|----------------------------|------------------------------ 
-|----------------------------|------------------------------ 
-|----------------------------|------------------------------ 
-|----------------------------|------------------------------ 
 
This song leads directly into "A Day in the Life" 
 
------------------------------------------------------------------------- 
Tab Special Notations: 
----0----  play the open string ('fret zero') 
----5----  play fret five 
----5~---  play fret five with vibrato 
  181

The Beatles    Complete Songbook 
---5/7---  play fret five, slide up to fret seven 
---7\5---  play fret seven, slide down to fret five 
--8b(9)--  play fret eight, bend the string (at fret eight) to reach 
             the pitch of fret nine 
--b(9)8--  play fret eight already bent to the pitch of fret nine, 
             unbending until it reaches the normal pitch of fret eight 
----h7---  hammer-on to fret seven 
----p5---  pull-off to fret five 
---/7----  slide up to fret 7 (the starting fret of the slide is 
             undefined, judge by ear) 
---15\---  play fret 15, slide down (the ending fret of the slide is 
             undefined, judge by ear) 
---0h3---  play the open string and immediately hammer-on to fret 
             three 
---7p5---  play fret seven and immediately pull-off to fret five 
 
 
============================================================================== 
I                    Transcribed by the Beatles Central Team                 I 
I                          jpgr_beatles@yahoo.com                            I 
I   Visit Beatles Central for more great Beatles tabs and midis(220+ each).  I 
I   Every album covered! http://members.tripod.com/jpgr_beatles/index.html   I 
============================================================================== 


  
Comments